  0
SECTION
  2
HEADER
  9
$ACADVER
  1
AC1015
  9
$ACADMAINTVER
 70
     6
  9
$DWGCODEPAGE
  3
ANSI_1254
  9
$INSBASE
 10
0.0
 20
0.0
 30
0.0
  9
$EXTMIN
 10
0.0
 20
0.0
 30
0.0
  9
$EXTMAX
 10
279.4
 20
215.9
 30
0.0
  9
$LIMMIN
 10
0.0
 20
0.0
  9
$LIMMAX
 10
279.4
 20
215.9
  9
$ORTHOMODE
 70
     0
  9
$REGENMODE
 70
     1
  9
$FILLMODE
 70
     1
  9
$QTEXTMODE
 70
     0
  9
$MIRRTEXT
 70
     1
  9
$LTSCALE
 40
1.0
  9
$ATTMODE
 70
     1
  9
$TEXTSIZE
 40
3.5
  9
$TRACEWID
 40
1.0
  9
$TEXTSTYLE
  7
Standard
  9
$CLAYER
  8
0
  9
$CELTYPE
  6
ByLayer
  9
$CECOLOR
 62
   256
  9
$CELTSCALE
 40
1.0
  9
$DISPSILH
 70
     0
  9
$DIMSCALE
 40
1.0
  9
$DIMASZ
 40
3.5
  9
$DIMEXO
 40
1.0
  9
$DIMDLI
 40
3.75
  9
$DIMRND
 40
0.0
  9
$DIMDLE
 40
0.0
  9
$DIMEXE
 40
1.0
  9
$DIMTP
 40
0.0
  9
$DIMTM
 40
0.0
  9
$DIMTXT
 40
3.5
  9
$DIMCEN
 40
2.5
  9
$DIMTSZ
 40
0.0
  9
$DIMTOL
 70
     0
  9
$DIMLIM
 70
     0
  9
$DIMTIH
 70
     1
  9
$DIMTOH
 70
     1
  9
$DIMSE1
 70
     0
  9
$DIMSE2
 70
     0
  9
$DIMTAD
 70
     1
  9
$DIMZIN
 70
     0
  9
$DIMBLK
  1

  9
$DIMASO
 70
     1
  9
$DIMSHO
 70
     1
  9
$DIMPOST
  1

  9
$DIMAPOST
  1

  9
$DIMALT
 70
     0
  9
$DIMALTD
 70
     3
  9
$DIMALTF
 40
0.0393700787
  9
$DIMLFAC
 40
1.0
  9
$DIMTOFL
 70
     1
  9
$DIMTVP
 40
0.0
  9
$DIMTIX
 70
     0
  9
$DIMSOXD
 70
     0
  9
$DIMSAH
 70
     0
  9
$DIMBLK1
  1

  9
$DIMBLK2
  1

  9
$DIMSTYLE
  2
ISO-25
  9
$DIMCLRD
 70
     0
  9
$DIMCLRE
 70
     0
  9
$DIMCLRT
 70
     0
  9
$DIMTFAC
 40
1.0
  9
$DIMGAP
 40
1.524
  9
$DIMJUST
 70
     0
  9
$DIMSD1
 70
     0
  9
$DIMSD2
 70
     0
  9
$DIMTOLJ
 70
     0
  9
$DIMTZIN
 70
     0
  9
$DIMALTZ
 70
     0
  9
$DIMALTTZ
 70
     0
  9
$DIMUPT
 70
     0
  9
$DIMDEC
 70
     2
  9
$DIMTDEC
 70
     2
  9
$DIMALTU
 70
     2
  9
$DIMALTTD
 70
     3
  9
$DIMTXSTY
  7
Standard
  9
$DIMAUNIT
 70
     0
  9
$DIMADEC
 70
     2
  9
$DIMALTRND
 40
0.0
  9
$DIMAZIN
 70
     0
  9
$DIMDSEP
 70
    44
  9
$DIMATFIT
 70
     3
  9
$DIMFRAC
 70
     0
  9
$DIMLDRBLK
  1

  9
$DIMLUNIT
 70
     2
  9
$DIMLWD
 70
    -2
  9
$DIMLWE
 70
    -2
  9
$DIMTMOVE
 70
     0
  9
$LUNITS
 70
     2
  9
$LUPREC
 70
     2
  9
$SKETCHINC
 40
1.0
  9
$FILLETRAD
 40
10.0
  9
$AUNITS
 70
     0
  9
$AUPREC
 70
     2
  9
$MENU
  1
.
  9
$ELEVATION
 40
0.0
  9
$PELEVATION
 40
0.0
  9
$THICKNESS
 40
0.0
  9
$LIMCHECK
 70
     0
  9
$CHAMFERA
 40
0.0
  9
$CHAMFERB
 40
0.0
  9
$CHAMFERC
 40
0.0
  9
$CHAMFERD
 40
0.0
  9
$SKPOLY
 70
     0
  9
$TDCREATE
 40
2458985.6333761
  9
$TDUCREATE
 40
2458985.5083761
  9
$TDUPDATE
 40
2458985.633376458
  9
$TDUUPDATE
 40
2458985.508376458
  9
$TDINDWG
 40
0.0000000116
  9
$TDUSRTIMER
 40
0.0000000116
  9
$USRTIMER
 70
     1
  9
$ANGBASE
 50
0.0
  9
$ANGDIR
 70
     0
  9
$PDMODE
 70
     0
  9
$PDSIZE
 40
-1.0
  9
$PLINEWID
 40
0.0
  9
$SPLFRAME
 70
     0
  9
$SPLINETYPE
 70
     6
  9
$SPLINESEGS
 70
     8
  9
$HANDSEED
  5
CE
  9
$SURFTAB1
 70
     6
  9
$SURFTAB2
 70
     6
  9
$SURFTYPE
 70
     6
  9
$SURFU
 70
     6
  9
$SURFV
 70
     6
  9
$UCSBASE
  2

  9
$UCSNAME
  2

  9
$UCSORG
 10
0.0
 20
0.0
 30
0.0
  9
$UCSXDIR
 10
1.0
 20
0.0
 30
0.0
  9
$UCSYDIR
 10
0.0
 20
1.0
 30
0.0
  9
$UCSORTHOREF
  2

  9
$UCSORTHOVIEW
 70
     0
  9
$UCSORGTOP
 10
0.0
 20
0.0
 30
0.0
  9
$UCSORGBOTTOM
 10
0.0
 20
0.0
 30
0.0
  9
$UCSORGLEFT
 10
0.0
 20
0.0
 30
0.0
  9
$UCSORGRIGHT
 10
0.0
 20
0.0
 30
0.0
  9
$UCSORGFRONT
 10
0.0
 20
0.0
 30
0.0
  9
$UCSORGBACK
 10
0.0
 20
0.0
 30
0.0
  9
$PUCSBASE
  2

  9
$PUCSNAME
  2

  9
$PUCSORG
 10
0.0
 20
0.0
 30
0.0
  9
$PUCSXDIR
 10
1.0
 20
0.0
 30
0.0
  9
$PUCSYDIR
 10
0.0
 20
1.0
 30
0.0
  9
$PUCSORTHOREF
  2

  9
$PUCSORTHOVIEW
 70
     0
  9
$PUCSORGTOP
 10
0.0
 20
0.0
 30
0.0
  9
$PUCSORGBOTTOM
 10
0.0
 20
0.0
 30
0.0
  9
$PUCSORGLEFT
 10
0.0
 20
0.0
 30
0.0
  9
$PUCSORGRIGHT
 10
0.0
 20
0.0
 30
0.0
  9
$PUCSORGFRONT
 10
0.0
 20
0.0
 30
0.0
  9
$PUCSORGBACK
 10
0.0
 20
0.0
 30
0.0
  9
$USERI1
 70
     0
  9
$USERI2
 70
     0
  9
$USERI3
 70
     0
  9
$USERI4
 70
     0
  9
$USERI5
 70
     0
  9
$USERR1
 40
0.0
  9
$USERR2
 40
0.0
  9
$USERR3
 40
0.0
  9
$USERR4
 40
0.0
  9
$USERR5
 40
0.0
  9
$WORLDVIEW
 70
     1
  9
$SHADEDGE
 70
     3
  9
$SHADEDIF
 70
    70
  9
$TILEMODE
 70
     1
  9
$MAXACTVP
 70
    64
  9
$PINSBASE
 10
0.0
 20
0.0
 30
0.0
  9
$PLIMCHECK
 70
     0
  9
$PEXTMIN
 10
1.0000000000E+20
 20
1.0000000000E+20
 30
1.0000000000E+20
  9
$PEXTMAX
 10
-1.0000000000E+20
 20
-1.0000000000E+20
 30
-1.0000000000E+20
  9
$PLIMMIN
 10
0.0
 20
0.0
  9
$PLIMMAX
 10
420.0
 20
297.0
  9
$UNITMODE
 70
     0
  9
$VISRETAIN
 70
     1
  9
$PLINEGEN
 70
     0
  9
$PSLTSCALE
 70
     1
  9
$TREEDEPTH
 70
  3020
  9
$CMLSTYLE
  2
Standard
  9
$CMLJUST
 70
     0
  9
$CMLSCALE
 40
20.0
  9
$PROXYGRAPHICS
 70
     1
  9
$MEASUREMENT
 70
     1
  9
$CELWEIGHT
370
    -1
  9
$ENDCAPS
280
     0
  9
$JOINSTYLE
280
     0
  9
$LWDISPLAY
290
     1
  9
$INSUNITS
 70
     4
  9
$HYPERLINKBASE
  1

  9
$STYLESHEET
  1

  9
$XEDIT
290
     1
  9
$CEPSNTYPE
380
     0
  9
$PSTYLEMODE
290
     1
  9
$FINGERPRINTGUID
  2
{3a2393bf-3c92-4a75-922c-d1fd4810e2d6}
  9
$VERSIONGUID
  2
{FAEB1C32-E019-11D5-929B-00C0DF256EC4}
  9
$EXTNAMES
290
     1
  9
$PSVPSCALE
 40
0.0
  9
$OLESTARTUP
290
     0
  0
ENDSEC
  0
SECTION
  2
CLASSES
  0
CLASS
  1
ACDBDICTIONARYWDFLT
  2
AcDbDictionaryWithDefault
  3
ObjectDBX Classes
 90
        0
280
     0
281
     0
  0
CLASS
  1
VISUALSTYLE
  2
AcDbVisualStyle
  3
ObjectDBX Classes
 90
     4095
280
     0
281
     0
  0
CLASS
  1
MATERIAL
  2
AcDbMaterial
  3
ObjectDBX Classes
 90
     1153
280
     0
281
     0
  0
CLASS
  1
SCALE
  2
AcDbScale
  3
ObjectDBX Classes
 90
     1153
280
     0
281
     0
  0
CLASS
  1
TABLESTYLE
  2
AcDbTableStyle
  3
ObjectDBX Classes
 90
     4095
280
     0
281
     0
  0
CLASS
  1
MLEADERSTYLE
  2
AcDbMLeaderStyle
  3
ACDB_MLEADERSTYLE_CLASS
 90
     4095
280
     0
281
     0
  0
CLASS
  1
SUN
  2
AcDbSun
  3
SCENEOE
 90
     1153
280
     0
281
     0
  0
CLASS
  1
ACDBPLACEHOLDER
  2
AcDbPlaceHolder
  3
ObjectDBX Classes
 90
        0
280
     0
281
     0
  0
CLASS
  1
LAYOUT
  2
AcDbLayout
  3
ObjectDBX Classes
 90
        0
280
     0
281
     0
  0
ENDSEC
  0
SECTION
  2
TABLES
  0
TABLE
  2
VPORT
  5
8
330
0
100
AcDbSymbolTable
 70
     1
  0
VPORT
  5
29
330
8
100
AcDbSymbolTableRecord
100
AcDbViewportTableRecord
  2
*Active
 70
     0
 10
0.0
 20
0.0
 11
1.0
 21
1.0
 12
139.7
 22
107.95
 13
0.0
 23
0.0
 14
10.0
 24
10.0
 15
10.0
 25
10.0
 16
0.0
 26
0.0
 36
1.0
 17
0.0
 27
0.0
 37
0.0
 40
215.9
 41
1.2941176471
 42
50.0
 43
0.0
 44
0.0
 50
0.0
 51
0.0
 71
     0
 72
  2000
 73
     1
 74
     3
 75
     0
 76
     0
 77
     0
 78
     0
281
     0
 65
     1
110
0.0
120
0.0
130
0.0
111
1.0
121
0.0
131
0.0
112
0.0
122
1.0
132
0.0
 79
     0
146
0.0
  0
ENDTAB
  0
TABLE
  2
LTYPE
  5
5
330
0
100
AcDbSymbolTable
 70
     6
  0
LTYPE
  5
14
330
5
100
AcDbSymbolTableRecord
100
AcDbLinetypeTableRecord
  2
ByBlock
 70
     0
  3

 72
    65
 73
     0
 40
0.0
  0
LTYPE
  5
15
330
5
100
AcDbSymbolTableRecord
100
AcDbLinetypeTableRecord
  2
ByLayer
 70
     0
  3

 72
    65
 73
     0
 40
0.0
  0
LTYPE
  5
16
330
5
100
AcDbSymbolTableRecord
100
AcDbLinetypeTableRecord
  2
Continuous
 70
     0
  3
Solid line
 72
    65
 73
     0
 40
0.0
  0
LTYPE
  5
6E
330
5
100
AcDbSymbolTableRecord
100
AcDbLinetypeTableRecord
  2
HIDDEN
 70
     0
  3
Hidden __ __ __ __ __ __ __ __ __ __ __ __ __ __
 72
    65
 73
     2
 40
1.905
 49
1.27
 74
     0
 49
-0.635
 74
     0
  0
LTYPE
  5
6F
330
5
100
AcDbSymbolTableRecord
100
AcDbLinetypeTableRecord
  2
PHANTOM
 70
     0
  3
Phantom ______  __  __  ______  __  __  ______
 72
    65
 73
     6
 40
12.7
 49
6.35
 74
     0
 49
-1.27
 74
     0
 49
1.27
 74
     0
 49
-1.27
 74
     0
 49
1.27
 74
     0
 49
-1.27
 74
     0
  0
LTYPE
  5
70
330
5
100
AcDbSymbolTableRecord
100
AcDbLinetypeTableRecord
  2
CENTER
 70
     0
  3
Center ____ _ ____ _ ____ _ ____ _ ____ _ ____
 72
    65
 73
     4
 40
10.16
 49
6.35
 74
     0
 49
-1.27
 74
     0
 49
1.27
 74
     0
 49
-1.27
 74
     0
  0
LTYPE
  5
71
330
5
100
AcDbSymbolTableRecord
100
AcDbLinetypeTableRecord
  2
CENTERX2
 70
     0
  3
Center (2x) ________  __  ________  __  _____
 72
    65
 73
     4
 40
20.32
 49
12.7
 74
     0
 49
-2.54
 74
     0
 49
2.54
 74
     0
 49
-2.54
 74
     0
  0
LTYPE
  5
72
330
5
100
AcDbSymbolTableRecord
100
AcDbLinetypeTableRecord
  2
DOT2
 70
     0
  3
Dot (.5x) ........................................
 72
    65
 73
     2
 40
0.635
 49
0.0
 74
     0
 49
-0.635
 74
     0
  0
ENDTAB
  0
TABLE
  2
LAYER
  5
2
330
0
100
AcDbSymbolTable
 70
    17
  0
LAYER
  5
10
330
2
100
AcDbSymbolTableRecord
100
AcDbLayerTableRecord
  2
0
 70
     0
 62
     7
  6
Continuous
370
    -3
390
F
  0
LAYER
  5
73
330
2
100
AcDbSymbolTableRecord
100
AcDbLayerTableRecord
  2
FORMAT
 70
     0
 62
     7
  6
Continuous
370
    -3
390
F
  0
LAYER
  5
74
330
2
100
AcDbSymbolTableRecord
100
AcDbLayerTableRecord
  2
YARDIMCI_GEOMETRI
 70
     0
 62
    -6
  6
Continuous
290
     0
370
    -3
390
F
  0
LAYER
  5
75
330
2
100
AcDbSymbolTableRecord
100
AcDbLayerTableRecord
  2
SAYFA_CERCEVESI
 70
     0
 62
     7
  6
Continuous
370
    25
390
F
  0
LAYER
  5
76
330
2
100
AcDbSymbolTableRecord
100
AcDbLayerTableRecord
  2
ANTET
 70
     0
 62
     7
  6
Continuous
370
    -3
390
F
  0
LAYER
  5
77
330
2
100
AcDbSymbolTableRecord
100
AcDbLayerTableRecord
  2
OLCU
 70
     0
 62
   150
  6
Continuous
370
    -3
390
F
  0
LAYER
  5
78
330
2
100
AcDbSymbolTableRecord
100
AcDbLayerTableRecord
  2
METIN
 70
     0
 62
    96
  6
Continuous
370
    -3
390
F
  0
LAYER
  5
79
330
2
100
AcDbSymbolTableRecord
100
AcDbLayerTableRecord
  2
BALON
 70
     0
 62
     5
  6
Continuous
370
    -3
390
F
  0
LAYER
  5
7A
330
2
100
AcDbSymbolTableRecord
100
AcDbLayerTableRecord
  2
VURGU
 70
     0
 62
     7
  6
Continuous
370
    -3
390
F
  0
LAYER
  5
7B
330
2
100
AcDbSymbolTableRecord
100
AcDbLayerTableRecord
  2
SILIK
 70
     0
 62
     7
  6
Continuous
370
    -3
390
F
  0
LAYER
  5
7C
330
2
100
AcDbSymbolTableRecord
100
AcDbLayerTableRecord
  2
MODEL
 70
     0
 62
     7
  6
Continuous
370
    -3
390
F
  0
LAYER
  5
7D
330
2
100
AcDbSymbolTableRecord
100
AcDbLayerTableRecord
  2
DETAYLANDıRMA
 70
     0
 62
   190
  6
Continuous
370
    -3
390
F
  0
LAYER
  5
7E
330
2
100
AcDbSymbolTableRecord
100
AcDbLayerTableRecord
  2
TOLERANS
 70
     0
 62
   230
  6
Continuous
370
    -3
390
F
  0
LAYER
  5
7F
330
2
100
AcDbSymbolTableRecord
100
AcDbLayerTableRecord
  2
MERKEZ_CIZGILERI
 70
     0
 62
    30
  6
Continuous
370
    -3
390
F
  0
LAYER
  5
80
330
2
100
AcDbSymbolTableRecord
100
AcDbLayerTableRecord
  2
KESIT-DETAY_CIZGILERI
 70
     0
 62
     7
  6
Continuous
370
    -3
390
F
  0
LAYER
  5
81
330
2
100
AcDbSymbolTableRecord
100
AcDbLayerTableRecord
  2
\U+041E\U+0421\U+0415\U+0412\U+042B\U+0415
 70
     0
 62
     7
  6
Continuous
370
    -3
390
F
  0
LAYER
  5
82
330
2
100
AcDbSymbolTableRecord
100
AcDbLayerTableRecord
  2
\U+0412\U+041E\U+0414\U+042F\U+041D\U+042B\U+0415_\U+0417\U+041D\U+0410\U+041A\U+0418
 70
     0
 62
    11
  6
Continuous
370
    -3
390
F
  0
ENDTAB
  0
TABLE
  2
STYLE
  5
3
330
0
100
AcDbSymbolTable
 70
     1
  0
STYLE
  5
11
330
3
100
AcDbSymbolTableRecord
100
AcDbTextStyleTableRecord
  2
Standard
 70
     0
 40
0.0
 41
1.0
 50
0.0
 71
     0
 42
3.5
  3
txt
  4

  0
ENDTAB
  0
TABLE
  2
VIEW
  5
6
330
0
100
AcDbSymbolTable
 70
     0
  0
ENDTAB
  0
TABLE
  2
UCS
  5
7
330
0
100
AcDbSymbolTable
 70
     0
  0
ENDTAB
  0
TABLE
  2
APPID
  5
9
330
0
100
AcDbSymbolTable
 70
     1
  0
APPID
  5
12
330
9
100
AcDbSymbolTableRecord
100
AcDbRegAppTableRecord
  2
ACAD
 70
     0
  0
ENDTAB
  0
TABLE
  2
DIMSTYLE
  5
A
330
0
100
AcDbSymbolTable
 70
     1
100
AcDbDimStyleTable
  0
DIMSTYLE
105
27
330
A
100
AcDbSymbolTableRecord
100
AcDbDimStyleTableRecord
  2
ISO-25
 70
     0
 41
2.5
 42
0.625
 43
3.75
 44
1.25
 73
     0
 74
     0
 77
     1
 78
     8
140
2.5
141
2.5
143
0.0393700787
147
0.625
171
     3
172
     1
178
     0
271
     2
272
     2
274
     3
278
    44
283
     0
284
     8
340
11
  0
ENDTAB
  0
TABLE
  2
BLOCK_RECORD
  5
1
330
0
100
AcDbSymbolTable
 70
     2
  0
BLOCK_RECORD
  5
1F
330
1
100
AcDbSymbolTableRecord
100
AcDbBlockTableRecord
  2
*Model_Space
340
22
  0
BLOCK_RECORD
  5
1B
330
1
100
AcDbSymbolTableRecord
100
AcDbBlockTableRecord
  2
*Paper_Space
340
1E
  0
BLOCK_RECORD
  5
23
330
1
100
AcDbSymbolTableRecord
100
AcDbBlockTableRecord
  2
*Paper_Space0
340
26
  0
BLOCK_RECORD
  5
87
330
1
100
AcDbSymbolTableRecord
100
AcDbBlockTableRecord
  2
SW_CENTERMARKSYMBOL_0
340
0
102
{BLKREFS
331
92
102
}
  0
ENDTAB
  0
ENDSEC
  0
SECTION
  2
BLOCKS
  0
BLOCK
  5
20
330
1F
100
AcDbEntity
  8
0
100
AcDbBlockBegin
  2
*Model_Space
 70
     0
 10
0.0
 20
0.0
 30
0.0
  3
*Model_Space
  1

  0
ENDBLK
  5
21
330
1F
100
AcDbEntity
  8
0
100
AcDbBlockEnd
  0
BLOCK
  5
1C
330
1B
100
AcDbEntity
 67
     1
  8
0
100
AcDbBlockBegin
  2
*Paper_Space
 70
     0
 10
0.0
 20
0.0
 30
0.0
  3
*Paper_Space
  1

  0
ENDBLK
  5
1D
330
1B
100
AcDbEntity
 67
     1
  8
0
100
AcDbBlockEnd
  0
BLOCK
  5
24
330
23
100
AcDbEntity
  8
0
100
AcDbBlockBegin
  2
*Paper_Space0
 70
     0
 10
0.0
 20
0.0
 30
0.0
  3
*Paper_Space0
  1

  0
ENDBLK
  5
25
330
23
100
AcDbEntity
  8
0
100
AcDbBlockEnd
  0
BLOCK
  5
88
330
87
100
AcDbEntity
  8
0
100
AcDbBlockBegin
  2
SW_CENTERMARKSYMBOL_0
 70
     0
 10
0.0
 20
0.0
 30
0.0
  3
SW_CENTERMARKSYMBOL_0
  1

  0
LINE
  5
8A
330
87
100
AcDbEntity
  8
FORMAT
 62
     0
100
AcDbLine
 10
0.0
 20
0.0
 30
0.0
 11
0.0
 21
2.5
 31
0.0
  0
LINE
  5
8B
330
87
100
AcDbEntity
  8
FORMAT
 62
     0
100
AcDbLine
 10
0.0
 20
0.0
 30
0.0
 11
-2.5
 21
0.0
 31
0.0
  0
LINE
  5
8C
330
87
100
AcDbEntity
  8
FORMAT
 62
     0
100
AcDbLine
 10
0.0
 20
0.0
 30
0.0
 11
0.0
 21
-2.5
 31
0.0
  0
LINE
  5
8D
330
87
100
AcDbEntity
  8
FORMAT
 62
     0
100
AcDbLine
 10
0.0
 20
0.0
 30
0.0
 11
2.5
 21
0.0
 31
0.0
  0
LINE
  5
8E
330
87
100
AcDbEntity
  8
FORMAT
 62
     0
100
AcDbLine
 10
0.0
 20
5.0
 30
0.0
 11
0.0
 21
402.5
 31
0.0
  0
LINE
  5
8F
330
87
100
AcDbEntity
  8
FORMAT
 62
     0
100
AcDbLine
 10
-5.0
 20
0.0
 30
0.0
 11
-402.5
 21
0.0
 31
0.0
  0
LINE
  5
90
330
87
100
AcDbEntity
  8
FORMAT
 62
     0
100
AcDbLine
 10
0.0
 20
-5.0
 30
0.0
 11
0.0
 21
-402.5
 31
0.0
  0
LINE
  5
91
330
87
100
AcDbEntity
  8
FORMAT
 62
     0
100
AcDbLine
 10
5.0
 20
0.0
 30
0.0
 11
402.5
 21
0.0
 31
0.0
  0
ENDBLK
  5
89
330
87
100
AcDbEntity
  8
0
100
AcDbBlockEnd
  0
ENDSEC
  0
SECTION
  2
ENTITIES
  0
CIRCLE
  5
83
330
1F
100
AcDbEntity
  8
0
  6
Continuous
 62
     7
370
    25
100
AcDbCircle
 10
144.720226199
 20
102.5495640621
 30
0.0
 40
354.9999999999999
  0
CIRCLE
  5
84
330
1F
100
AcDbEntity
  8
0
  6
Continuous
 62
     7
370
    25
100
AcDbCircle
 10
144.720226199
 20
102.5495640621
 30
0.0
 40
290.4999999999999
  0
CIRCLE
  5
85
330
1F
100
AcDbEntity
  8
0
  6
Continuous
 62
     7
370
    25
100
AcDbCircle
 10
144.720226199
 20
102.5495640621
 30
0.0
 40
370.0
  0
CIRCLE
  5
86
330
1F
100
AcDbEntity
  8
0
  6
Continuous
 62
     7
370
    25
100
AcDbCircle
 10
144.720226199
 20
102.5495640621
 30
0.0
 40
400.0000000000001
  0
INSERT
  5
92
330
1F
100
AcDbEntity
  8
FORMAT
 62
     7
100
AcDbBlockReference
  2
SW_CENTERMARKSYMBOL_0
 10
144.720226199
 20
102.5495640621
 30
0.0
  0
LINE
  5
93
330
1F
100
AcDbEntity
  8
0
  6
Continuous
 62
     7
370
    25
100
AcDbLine
 10
544.720226199
 20
701.175119318
 30
0.0
 11
544.720226199
 21
776.175119318
 31
0.0
  0
LINE
  5
94
330
1F
100
AcDbEntity
  8
0
  6
Continuous
 62
     7
370
    25
100
AcDbLine
 10
-255.279773801
 20
776.175119318
 30
0.0
 11
-255.279773801
 21
701.175119318
 31
0.0
  0
LINE
  5
95
330
1F
100
AcDbEntity
  8
0
  6
Continuous
 62
     7
370
    25
100
AcDbLine
 10
514.720226199
 20
776.175119318
 30
0.0
 11
499.720226199
 21
866.175119318
 31
0.0
  0
LINE
  5
96
330
1F
100
AcDbEntity
  8
0
  6
Continuous
 62
     7
370
    25
100
AcDbLine
 10
-210.279773801
 20
866.175119318
 30
0.0
 11
-225.279773801
 21
776.175119318
 31
0.0
  0
LINE
  5
97
330
1F
100
AcDbEntity
  8
0
  6
Continuous
 62
     7
370
    25
100
AcDbLine
 10
499.720226199
 20
866.175119318
 30
0.0
 11
499.720226199
 21
1148.175119318
 31
0.0
  0
LINE
  5
98
330
1F
100
AcDbEntity
  8
0
  6
Continuous
 62
     7
370
    25
100
AcDbLine
 10
-210.279773801
 20
1148.175119318
 30
0.0
 11
-210.279773801
 21
866.175119318
 31
0.0
  0
LINE
  5
99
330
1F
100
AcDbEntity
  8
0
  6
Continuous
 62
     7
370
    25
100
AcDbLine
 10
544.720226199
 20
701.175119318
 30
0.0
 11
-255.279773801
 21
701.175119318
 31
0.0
  0
LINE
  5
9A
330
1F
100
AcDbEntity
  8
0
  6
Continuous
 62
     7
370
    25
100
AcDbLine
 10
544.720226199
 20
776.175119318
 30
0.0
 11
-255.279773801
 21
776.175119318
 31
0.0
  0
LINE
  5
9B
330
1F
100
AcDbEntity
  8
0
  6
Continuous
 62
     7
370
    25
100
AcDbLine
 10
499.720226199
 20
866.175119318
 30
0.0
 11
-210.279773801
 21
866.175119318
 31
0.0
  0
LINE
  5
9C
330
1F
100
AcDbEntity
  8
0
  6
Continuous
 62
     7
370
    25
100
AcDbLine
 10
499.720226199
 20
1148.175119318
 30
0.0
 11
-210.279773801
 21
1148.175119318
 31
0.0
  0
LINE
  5
9D
330
1F
100
AcDbEntity
  8
0
  6
Continuous
 62
     7
370
    25
100
AcDbLine
 10
-532.7213851116
 20
502.5495640621
 30
0.0
 11
-607.7213851116
 21
502.5495640621
 31
0.0
  0
LINE
  5
9E
330
1F
100
AcDbEntity
  8
0
  6
Continuous
 62
     7
370
    25
100
AcDbLine
 10
-607.7213851116
 20
-297.4504359379
 30
0.0
 11
-532.7213851116
 21
-297.4504359379
 31
0.0
  0
LINE
  5
9F
330
1F
100
AcDbEntity
  8
0
  6
Continuous
 62
     7
370
    25
100
AcDbLine
 10
-607.7213851116
 20
472.5495640621
 30
0.0
 11
-697.7213851116
 21
457.5495640621
 31
0.0
  0
LINE
  5
A0
330
1F
100
AcDbEntity
  8
0
  6
Continuous
 62
     7
370
    25
100
AcDbLine
 10
-697.7213851116
 20
-252.4504359379
 30
0.0
 11
-607.7213851116
 21
-267.4504359379
 31
0.0
  0
LINE
  5
A1
330
1F
100
AcDbEntity
  8
0
  6
Continuous
 62
     7
370
    25
100
AcDbLine
 10
-697.7213851116
 20
457.5495640621
 30
0.0
 11
-979.7213851116
 21
457.5495640621
 31
0.0
  0
LINE
  5
A2
330
1F
100
AcDbEntity
  8
0
  6
Continuous
 62
     7
370
    25
100
AcDbLine
 10
-979.7213851116
 20
-252.4504359379
 30
0.0
 11
-697.7213851116
 21
-252.4504359379
 31
0.0
  0
LINE
  5
A3
330
1F
100
AcDbEntity
  8
0
  6
Continuous
 62
     7
370
    25
100
AcDbLine
 10
-532.7213851116
 20
502.5495640621
 30
0.0
 11
-532.7213851116
 21
-297.4504359379
 31
0.0
  0
LINE
  5
A4
330
1F
100
AcDbEntity
  8
0
  6
Continuous
 62
     7
370
    25
100
AcDbLine
 10
-607.7213851116
 20
502.5495640621
 30
0.0
 11
-607.7213851116
 21
-297.4504359379
 31
0.0
  0
LINE
  5
A5
330
1F
100
AcDbEntity
  8
0
  6
Continuous
 62
     7
370
    25
100
AcDbLine
 10
-697.7213851116
 20
457.5495640621
 30
0.0
 11
-697.7213851116
 21
-252.4504359379
 31
0.0
  0
LINE
  5
A6
330
1F
100
AcDbEntity
  8
0
  6
Continuous
 62
     7
370
    25
100
AcDbLine
 10
-979.7213851116
 20
457.5495640621
 30
0.0
 11
-979.7213851116
 21
-252.4504359379
 31
0.0
  0
LINE
  5
A7
330
1F
100
AcDbEntity
  8
0
  6
Continuous
 62
     7
370
    25
100
AcDbLine
 10
712.6965276748
 20
-297.4504359379
 30
0.0
 11
787.6965276748
 21
-297.4504359379
 31
0.0
  0
LINE
  5
A8
330
1F
100
AcDbEntity
  8
0
  6
Continuous
 62
     7
370
    25
100
AcDbLine
 10
787.6965276748
 20
502.5495640621
 30
0.0
 11
712.6965276748
 21
502.5495640621
 31
0.0
  0
LINE
  5
A9
330
1F
100
AcDbEntity
  8
0
  6
Continuous
 62
     7
370
    25
100
AcDbLine
 10
787.6965276748
 20
-267.4504359379
 30
0.0
 11
877.6965276748
 21
-252.4504359379
 31
0.0
  0
LINE
  5
AA
330
1F
100
AcDbEntity
  8
0
  6
Continuous
 62
     7
370
    25
100
AcDbLine
 10
877.6965276748
 20
457.5495640621
 30
0.0
 11
787.6965276748
 21
472.5495640621
 31
0.0
  0
LINE
  5
AB
330
1F
100
AcDbEntity
  8
0
  6
Continuous
 62
     7
370
    25
100
AcDbLine
 10
877.6965276748
 20
-252.4504359379
 30
0.0
 11
1159.6965276748
 21
-252.4504359379
 31
0.0
  0
LINE
  5
AC
330
1F
100
AcDbEntity
  8
0
  6
Continuous
 62
     7
370
    25
100
AcDbLine
 10
1159.6965276748
 20
457.5495640621
 30
0.0
 11
877.6965276748
 21
457.5495640621
 31
0.0
  0
LINE
  5
AD
330
1F
100
AcDbEntity
  8
0
  6
Continuous
 62
     7
370
    25
100
AcDbLine
 10
712.6965276748
 20
102.5495640621
 30
0.0
 11
712.6965276748
 21
502.5495640621
 31
0.0
  0
LINE
  5
AE
330
1F
100
AcDbEntity
  8
0
  6
Continuous
 62
     7
370
    25
100
AcDbLine
 10
712.6965276748
 20
-297.4504359379
 30
0.0
 11
712.6965276748
 21
102.5495640621
 31
0.0
  0
LINE
  5
AF
330
1F
100
AcDbEntity
  8
0
  6
Continuous
 62
     7
370
    25
100
AcDbLine
 10
787.6965276748
 20
102.5495640621
 30
0.0
 11
787.6965276748
 21
502.5495640621
 31
0.0
  0
LINE
  5
B0
330
1F
100
AcDbEntity
  8
0
  6
Continuous
 62
     7
370
    25
100
AcDbLine
 10
787.6965276748
 20
-297.4504359379
 30
0.0
 11
787.6965276748
 21
102.5495640621
 31
0.0
  0
LINE
  5
B1
330
1F
100
AcDbEntity
  8
0
  6
Continuous
 62
     7
370
    25
100
AcDbLine
 10
877.6965276748
 20
102.5495640621
 30
0.0
 11
877.6965276748
 21
457.5495640621
 31
0.0
  0
LINE
  5
B2
330
1F
100
AcDbEntity
  8
0
  6
Continuous
 62
     7
370
    25
100
AcDbLine
 10
877.6965276748
 20
-252.4504359379
 30
0.0
 11
877.6965276748
 21
102.5495640621
 31
0.0
  0
LINE
  5
B3
330
1F
100
AcDbEntity
  8
0
  6
Continuous
 62
     7
370
    25
100
AcDbLine
 10
1159.6965276748
 20
102.5495640621
 30
0.0
 11
1159.6965276748
 21
457.5495640621
 31
0.0
  0
LINE
  5
B4
330
1F
100
AcDbEntity
  8
0
  6
Continuous
 62
     7
370
    25
100
AcDbLine
 10
1159.6965276748
 20
-252.4504359379
 30
0.0
 11
1159.6965276748
 21
102.5495640621
 31
0.0
  0
LINE
  5
B5
330
1F
100
AcDbEntity
  8
0
  6
Continuous
 62
     7
370
    25
100
AcDbLine
 10
-255.279773801
 20
-544.1289618301
 30
0.0
 11
-255.279773801
 21
-619.1289618301
 31
0.0
  0
LINE
  5
B6
330
1F
100
AcDbEntity
  8
0
  6
Continuous
 62
     7
370
    25
100
AcDbLine
 10
544.720226199
 20
-619.1289618301
 30
0.0
 11
544.720226199
 21
-544.1289618301
 31
0.0
  0
LINE
  5
B7
330
1F
100
AcDbEntity
  8
0
  6
Continuous
 62
     7
370
    25
100
AcDbLine
 10
-225.279773801
 20
-619.1289618301
 30
0.0
 11
-210.279773801
 21
-709.1289618301
 31
0.0
  0
LINE
  5
B8
330
1F
100
AcDbEntity
  8
0
  6
Continuous
 62
     7
370
    25
100
AcDbLine
 10
499.720226199
 20
-709.1289618301
 30
0.0
 11
514.720226199
 21
-619.1289618301
 31
0.0
  0
LINE
  5
B9
330
1F
100
AcDbEntity
  8
0
  6
Continuous
 62
     7
370
    25
100
AcDbLine
 10
-210.279773801
 20
-709.1289618301
 30
0.0
 11
-210.279773801
 21
-991.1289618301
 31
0.0
  0
LINE
  5
BA
330
1F
100
AcDbEntity
  8
0
  6
Continuous
 62
     7
370
    25
100
AcDbLine
 10
499.720226199
 20
-991.1289618301
 30
0.0
 11
499.720226199
 21
-709.1289618301
 31
0.0
  0
LINE
  5
BB
330
1F
100
AcDbEntity
  8
0
  6
Continuous
 62
     7
370
    25
100
AcDbLine
 10
-255.279773801
 20
-544.1289618301
 30
0.0
 11
544.720226199
 21
-544.1289618301
 31
0.0
  0
LINE
  5
BC
330
1F
100
AcDbEntity
  8
0
  6
Continuous
 62
     7
370
    25
100
AcDbLine
 10
-255.279773801
 20
-619.1289618301
 30
0.0
 11
544.720226199
 21
-619.1289618301
 31
0.0
  0
LINE
  5
BD
330
1F
100
AcDbEntity
  8
0
  6
Continuous
 62
     7
370
    25
100
AcDbLine
 10
-210.279773801
 20
-709.1289618301
 30
0.0
 11
499.720226199
 21
-709.1289618301
 31
0.0
  0
LINE
  5
BE
330
1F
100
AcDbEntity
  8
0
  6
Continuous
 62
     7
370
    25
100
AcDbLine
 10
-210.279773801
 20
-991.1289618301
 30
0.0
 11
499.720226199
 21
-991.1289618301
 31
0.0
  0
LINE
  5
BF
330
1F
100
AcDbEntity
  8
0
  6
Continuous
 62
     7
370
    25
100
AcDbLine
 10
868.9021794556
 20
-570.9150334327
 30
0.0
 11
737.2940797774
 21
-699.3685733515
 31
0.0
  0
LINE
  5
C0
330
1F
100
AcDbEntity
  8
0
  6
Continuous
 62
     7
370
    25
100
AcDbLine
 10
1233.2135724193
 20
-1207.4668481151
 30
0.0
 11
1364.8216720976
 21
-1079.0133081963
 31
0.0
  0
LINE
  5
C1
330
1F
100
AcDbEntity
  8
0
  6
Continuous
 62
     7
370
    25
100
AcDbLine
 10
866.4340362991
 20
-562.1600313604
 30
0.0
 11
850.0668647176
 21
-589.2988780403
 31
0.0
  0
LINE
  5
C2
330
1F
100
AcDbEntity
  8
0
  6
Continuous
 62
     7
370
    25
100
AcDbLine
 10
1345.9863573595
 20
-1097.3971528039
 30
0.0
 11
1373.5142295883
 21
-1081.6930910601
 31
0.0
  0
LINE
  5
C3
330
1F
100
AcDbEntity
  8
0
  6
Continuous
 62
     7
370
    25
100
AcDbLine
 10
914.4754014898
 20
-463.5526355292
 30
0.0
 11
879.4732473201
 21
-497.7158110395
 31
0.0
  0
LINE
  5
C4
330
1F
100
AcDbEntity
  8
0
  6
Continuous
 62
     7
370
    25
100
AcDbLine
 10
1438.2557742406
 20
-1070.2209093647
 30
0.0
 11
1473.2579284103
 21
-1036.0577338544
 31
0.0
  0
LWPOLYLINE
  5
C5
330
1F
100
AcDbEntity
  8
0
  6
Continuous
 62
     7
370
    25
100
AcDbPolyline
 90
      201
 70
   128
 43
0.0
 10
671.2853929029
 20
-868.0878181205
 10
671.4403173717
 20
-858.5718054434
 10
671.9049378865
 20
-849.149394224
 10
672.6787959229
 20
-839.8298832445
 10
673.7611277764
 20
-830.6224697371
 10
675.1508653162
 20
-821.5362403073
 10
676.8466370392
 20
-812.5801619666
 10
678.8467694232
 20
-803.763073283
 10
681.1492885793
 20
-795.0936756586
 10
683.7519221988
 20
-786.5805247421
 10
686.6521017968
 20
-778.2320219856
 10
689.846965246
 20
-770.0564063535
 10
693.333359602
 20
-762.0617461914
 10
697.1078442144
 20
-754.2559312636
 10
701.1666941227
 20
-746.646664967
 10
705.505903732
 20
-739.2414567288
 10
710.1211907662
 20
-732.0476145955
 10
715.0080004944
 20
-725.0722380208
 10
720.1615102253
 20
-718.3222108591
 10
725.5766340669
 20
-711.8041945724
 10
731.2480279459
 20
-705.5246216558
 10
737.1700948812
 20
-699.4896892896
 10
743.3369905077
 20
-693.7053532235
 10
749.7426288439
 20
-688.1773218988
 10
756.3806882982
 20
-682.911050815
 10
763.2446179073
 20
-677.9117371459
 10
770.3276438014
 20
-673.1843146105
 10
777.6227758891
 20
-668.7334486041
 10
785.1228147557
 20
-664.563531594
 10
792.8203587685
 20
-660.678678785
 10
800.7078113807
 20
-657.0827240576
 10
808.7773886289
 20
-653.7792161852
 10
817.0211268146
 20
-650.7714153311
 10
825.4308903636
 20
-648.0622898316
 10
833.9983798545
 20
-645.6545132666
 10
842.7151402095
 20
-643.5504618207
 10
851.5725690386
 20
-641.7522119389
 10
860.5619251288
 20
-640.2615382764
 10
869.6743370711
 20
-639.0799119484
 10
878.900812015
 20
-638.2084990774
 10
888.2322445437
 20
-637.6481596425
 10
897.6594256597
 20
-637.3994466313
 10
907.1730518736
 20
-637.4626054934
 10
916.7637343849
 20
-637.8375738986
 10
926.4220083478
 20
-638.5239817985
 10
936.1383422119
 20
-639.5211517912
 10
945.9031471288
 20
-640.8280997904
 10
955.7067864151
 20
-642.4435359962
 10
965.5395850622
 20
-644.3658661682
 10
975.3918392851
 20
-646.5931931984
 10
985.2538260983
 20
-649.123318984
 10
995.1158129116
 20
-651.9537465964
 10
1004.9680671345
 20
-655.0816827452
 10
1014.8008657816
 20
-658.5040405351
 10
1024.6045050679
 20
-662.2174425121
 10
1034.3693099848
 20
-666.2182239969
 10
1044.0856438489
 20
-670.502436701
 10
1053.7439178118
 20
-675.0658526238
 10
1063.3346003231
 20
-679.9039682247
 10
1072.848226537
 20
-685.0120088678
 10
1082.275407653
 20
-690.3849335336
 10
1091.6068401817
 20
-696.0174397942
 10
1100.8333151255
 20
-701.9039690459
 10
1109.9457270678
 20
-708.038711995
 10
1118.9350831581
 20
-714.4156143908
 10
1127.7925119872
 20
-721.0283830008
 10
1136.5092723422
 20
-727.8704918204
 10
1145.0767618331
 20
-734.9351885145
 10
1153.4865253821
 20
-742.2155010803
 10
1161.7302635678
 20
-749.7042447283
 10
1169.799840816
 20
-757.3940289726
 10
1177.6872934282
 20
-765.2772649246
 10
1185.384837441
 20
-773.3461727821
 10
1192.8848763076
 20
-781.5927895073
 10
1200.1800083953
 20
-790.0089766851
 10
1207.2630342894
 20
-798.5864285548
 10
1214.1269638985
 20
-807.316680207
 10
1220.7650233528
 20
-816.1911159373
 10
1227.170661689
 20
-825.2009777491
 10
1233.3375573155
 20
-834.3373739966
 10
1239.2596242508
 20
-843.5912881597
 10
1244.9310181298
 20
-852.9535877424
 10
1250.3461419714
 20
-862.4150332853
 10
1255.4996517023
 20
-871.9662874839
 10
1260.3864614305
 20
-881.5979244035
 10
1265.0017484647
 20
-891.3004387814
 10
1269.340958074
 20
-901.0642554071
 10
1273.3998079823
 20
-910.8797385726
 10
1277.1742925947
 20
-920.7372015809
 10
1280.6606869507
 20
-930.6269163061
 10
1283.8555503999
 20
-940.5391227939
 10
1286.7557299979
 20
-950.4640388932
 10
1289.3583636174
 20
-960.3918699099
 10
1291.6608827735
 20
-970.3128182736
 10
1293.6610151575
 20
-980.2170932058
 10
1295.3567868804
 20
-990.0949203831
 10
1296.7465244203
 20
-999.9365515826
 10
1297.8288562738
 20
-1009.7322743024
 10
1298.6027143102
 20
-1019.472421347
 10
1299.067334825
 20
-1029.147380367
 10
1299.2222592938
 20
-1038.7476033461
 10
1299.067334825
 20
-1048.2636160231
 10
1298.6027143102
 20
-1057.6860272425
 10
1297.8288562738
 20
-1067.005538222
 10
1296.7465244203
 20
-1076.2129517294
 10
1295.3567868804
 20
-1085.2991811592
 10
1293.6610151575
 20
-1094.2552594999
 10
1291.6608827735
 20
-1103.0723481835
 10
1289.3583636174
 20
-1111.741745808
 10
1286.7557299979
 20
-1120.2548967245
 10
1283.8555503999
 20
-1128.6033994809
 10
1280.6606869507
 20
-1136.779015113
 10
1277.1742925947
 20
-1144.7736752752
 10
1273.3998079823
 20
-1152.579490203
 10
1269.340958074
 20
-1160.1887564996
 10
1265.0017484647
 20
-1167.5939647378
 10
1260.3864614305
 20
-1174.787806871
 10
1255.4996517023
 20
-1181.7631834458
 10
1250.3461419714
 20
-1188.5132106074
 10
1244.9310181297
 20
-1195.0312268941
 10
1239.2596242508
 20
-1201.3107998107
 10
1233.3375573155
 20
-1207.3457321769
 10
1227.170661689
 20
-1213.130068243
 10
1220.7650233528
 20
-1218.6580995677
 10
1214.1269638985
 20
-1223.9243706515
 10
1207.2630342894
 20
-1228.9236843206
 10
1200.1800083953
 20
-1233.6511068561
 10
1192.8848763076
 20
-1238.1019728625
 10
1185.384837441
 20
-1242.2718898726
 10
1177.6872934282
 20
-1246.1567426816
 10
1169.799840816
 20
-1249.7526974089
 10
1161.7302635678
 20
-1253.0562052813
 10
1153.4865253821
 20
-1256.0640061354
 10
1145.0767618331
 20
-1258.7731316349
 10
1136.5092723422
 20
-1261.1809082
 10
1127.7925119872
 20
-1263.2849596458
 10
1118.9350831581
 20
-1265.0832095277
 10
1109.9457270678
 20
-1266.5738831901
 10
1100.8333151255
 20
-1267.7555095181
 10
1091.6068401817
 20
-1268.6269223892
 10
1082.275407653
 20
-1269.187261824
 10
1072.848226537
 20
-1269.4359748352
 10
1063.3346003231
 20
-1269.3728159731
 10
1053.7439178118
 20
-1268.9978475679
 10
1044.0856438489
 20
-1268.3114396681
 10
1034.3693099848
 20
-1267.3142696753
 10
1024.6045050678
 20
-1266.0073216761
 10
1014.8008657816
 20
-1264.3918854703
 10
1004.9680671345
 20
-1262.4695552984
 10
995.1158129116
 20
-1260.2422282682
 10
985.2538260983
 20
-1257.7121024825
 10
975.3918392851
 20
-1254.8816748701
 10
965.5395850622
 20
-1251.7537387213
 10
955.7067864151
 20
-1248.3313809314
 10
945.9031471288
 20
-1244.6179789544
 10
936.1383422119
 20
-1240.6171974697
 10
926.4220083477
 20
-1236.3329847656
 10
916.7637343849
 20
-1231.7695688428
 10
907.1730518736
 20
-1226.9314532418
 10
897.6594256597
 20
-1221.8234125987
 10
888.2322445437
 20
-1216.4504879329
 10
878.900812015
 20
-1210.8179816724
 10
869.6743370711
 20
-1204.9314524207
 10
860.5619251288
 20
-1198.7967094716
 10
851.5725690386
 20
-1192.4198070757
 10
842.7151402095
 20
-1185.8070384658
 10
833.9983798545
 20
-1178.9649296461
 10
825.4308903636
 20
-1171.900232952
 10
817.0211268146
 20
-1164.6199203862
 10
808.7773886289
 20
-1157.1311767382
 10
800.7078113807
 20
-1149.4413924939
 10
792.8203587685
 20
-1141.5581565419
 10
785.1228147557
 20
-1133.4892486844
 10
777.6227758891
 20
-1125.2426319592
 10
770.3276438014
 20
-1116.8264447815
 10
763.2446179073
 20
-1108.2489929118
 10
756.3806882982
 20
-1099.5187412596
 10
749.7426288439
 20
-1090.6443055293
 10
743.3369905077
 20
-1081.6344437174
 10
737.1700948812
 20
-1072.49804747
 10
731.2480279459
 20
-1063.2441333069
 10
725.5766340669
 20
-1053.8818337242
 10
720.1615102253
 20
-1044.4203881813
 10
715.0080004944
 20
-1034.8691339826
 10
710.1211907662
 20
-1025.237497063
 10
705.505903732
 20
-1015.5349826852
 10
701.1666941227
 20
-1005.7711660594
 10
697.1078442144
 20
-995.955682894
 10
693.333359602
 20
-986.0982198857
 10
689.846965246
 20
-976.2085051604
 10
686.6521017968
 20
-966.2962986726
 10
683.7519221988
 20
-956.3713825734
 10
681.1492885793
 20
-946.4435515566
 10
678.8467694232
 20
-936.522603193
 10
676.8466370392
 20
-926.6183282607
 10
675.1508653162
 20
-916.7405010834
 10
673.7611277764
 20
-906.8988698839
 10
672.6787959229
 20
-897.1031471641
 10
671.9049378865
 20
-887.3630001196
 10
671.4403173717
 20
-877.6880410995
 10
671.2853929029
 20
-868.0878181205
  0
LWPOLYLINE
  5
C6
330
1F
100
AcDbEntity
  8
0
  6
Continuous
 62
     7
370
    25
100
AcDbPolyline
 90
      182
 70
   128
 43
0.0
 10
728.3303617511
 20
-883.5914183276
 10
728.4851481328
 20
-874.9912563925
 10
728.9493207724
 20
-866.4855922265
 10
729.722320378
 20
-858.0846744924
 10
730.8032155454
 20
-849.7986256416
 10
732.19070388
 20
-841.6374297178
 10
733.8831135664
 20
-833.6109203264
 10
735.8784053828
 20
-825.7287687859
 10
738.1741751579
 20
-818.0004724752
 10
740.7676566681
 20
-810.4353433892
 10
743.65572497
 20
-803.0424969194
 10
746.8349001663
 20
-795.8308408698
 10
750.3013515985
 20
-788.8090647245
 10
754.0509024627
 20
-781.9856291766
 10
758.0790348421
 20
-775.3687559346
 10
762.3808951509
 20
-768.9664178153
 10
766.9512999824
 20
-762.7863291376
 10
771.7847423549
 20
-756.835936427
 10
776.8753983468
 20
-751.1224094431
 10
782.2171341141
 20
-745.652632541
 10
787.8035132812
 20
-740.4331963759
 10
793.6278046963
 20
-735.4703899617
 10
799.682990542
 20
-730.7701930938
 10
805.9617747909
 20
-726.3382691431
 10
812.456591997
 20
-722.1799582329
 10
819.1596164115
 20
-718.300270804
 10
826.062771412
 20
-714.7038815775
 10
833.1577392345
 20
-711.3951239224
 10
840.4359709952
 20
-708.3779846338
 10
847.8886969919
 20
-705.6560991297
 10
855.5069372701
 20
-703.2327470701
 10
863.2815124437
 20
-701.1108484054
 10
871.2030547551
 20
-699.2929598583
 10
879.2620193629
 20
-697.7812718428
 10
887.4486958424
 20
-696.5776058254
 10
895.7532198861
 20
-695.6834121298
 10
904.1655851892
 20
-695.0997681897
 10
912.675655507
 20
-694.8273772507
 10
921.2731768673
 20
-694.8665675226
 10
929.9477899267
 20
-695.2172917842
 10
938.689042452
 20
-695.8791274401
 10
947.4864019148
 20
-696.8512770298
 10
956.3292681822
 20
-698.1325691889
 10
965.206986289
 20
-699.72146006
 10
974.1088592763
 20
-701.6160351534
 10
983.0241610807
 20
-703.8140116538
 10
991.9421494577
 20
-706.3127411705
 10
1000.852078926
 20
-709.1092129292
 10
1009.7432137145
 20
-712.2000573991
 10
1018.6048406984
 20
-715.5815503536
 10
1027.4262823073
 20
-719.2496173568
 10
1036.1969093912
 20
-723.1998386738
 10
1044.9061540275
 20
-727.4274545956
 10
1053.5435222549
 20
-731.9273711743
 10
1062.0986067172
 20
-736.6941663607
 10
1070.5610992042
 20
-741.7220965382
 10
1078.9208030715
 20
-747.0051034423
 10
1087.167645527
 20
-752.5368214612
 10
1095.2916897678
 20
-758.3105853057
 10
1103.2831469536
 20
-764.3194380398
 10
1111.1323880006
 20
-770.5561394642
 10
1118.829955185
 20
-777.0131748394
 10
1126.3665735377
 20
-783.6827639406
 10
1133.7331620206
 20
-790.5568704325
 10
1140.9208444684
 20
-797.6272115522
 10
1147.9209602836
 20
-804.8852680892
 10
1154.7250748718
 20
-812.3222946509
 10
1161.3249898049
 20
-819.9293301993
 10
1167.7127526995
 20
-827.6972088493
 10
1173.8806667988
 20
-835.6165709119
 10
1179.8213002467
 20
-843.6778741728
 10
1185.5274950426
 20
-851.8714053895
 10
1190.9923756662
 20
-860.1872919948
 10
1196.209357362
 20
-868.6155139933
 10
1201.1721540734
 20
-877.1459160339
 10
1205.874786017
 20
-885.7682196464
 10
1210.3115868874
 20
-894.4720356266
 10
1214.4772106852
 20
-903.2468765543
 10
1218.3666381583
 20
-912.0821694294
 10
1221.9751828493
 20
-920.9672684123
 10
1225.2984967431
 20
-929.8914676507
 10
1228.3325755052
 20
-938.8440141796
 10
1231.0737633071
 20
-947.8141208778
 10
1233.5187572309
 20
-956.7909794653
 10
1235.6646112494
 20
-965.7637735267
 10
1237.5087397756
 20
-974.721691544
 10
1239.0489207783
 20
-983.6539399238
 10
1240.2832984594
 20
-992.5497560024
 10
1241.2103854899
 20
-1001.3984210144
 10
1241.8290648021
 20
-1010.1892730075
 10
1242.1385909356
 20
-1018.91171969
 10
1242.1385909356
 20
-1027.5552511928
 10
1241.8290648021
 20
-1036.1094527337
 10
1241.2103854899
 20
-1044.5640171661
 10
1240.2832984594
 20
-1052.9087573985
 10
1239.0489207783
 20
-1061.1336186687
 10
1237.5087397756
 20
-1069.2286906595
 10
1235.6646112494
 20
-1077.1842194398
 10
1233.5187572309
 20
-1084.9906192169
 10
1231.0737633071
 20
-1092.6384838872
 10
1228.3325755052
 20
-1100.1185983694
 10
1225.2984967431
 20
-1107.4219497081
 10
1221.9751828493
 20
-1114.5397379339
 10
1218.3666381583
 20
-1121.4633866662
 10
1214.4772106852
 20
-1128.1845534477
 10
1210.3115868874
 20
-1134.6951397959
 10
1205.874786017
 20
-1140.9873009612
 10
1201.1721540734
 20
-1147.0534553797
 10
1196.209357362
 20
-1152.8862938076
 10
1190.9923756662
 20
-1158.4787881291
 10
1185.5274950425
 20
-1163.8241998239
 10
1179.8213002467
 20
-1168.9160880874
 10
1173.8806667988
 20
-1173.7483175908
 10
1167.7127526995
 20
-1178.3150658739
 10
1161.3249898049
 20
-1182.6108303608
 10
1154.7250748718
 20
-1186.6304349897
 10
1147.9209602836
 20
-1190.3690364503
 10
1140.9208444684
 20
-1193.8221300189
 10
1133.7331620206
 20
-1196.9855549867
 10
1126.3665735377
 20
-1199.8554996731
 10
1118.829955185
 20
-1202.4285060182
 10
1111.1323880006
 20
-1204.7014737498
 10
1103.2831469535
 20
-1206.6716641187
 10
1095.2916897678
 20
-1208.3367031992
 10
1087.167645527
 20
-1209.6945847487
 10
1078.9208030715
 20
-1210.7436726258
 10
1070.5610992042
 20
-1211.4827027612
 10
1062.0986067172
 20
-1211.9107846813
 10
1053.5435222549
 20
-1212.0274025806
 10
1044.9061540275
 20
-1211.8324159437
 10
1036.1969093912
 20
-1211.3260597142
 10
1027.4262823073
 20
-1210.508944012
 10
1018.6048406984
 20
-1209.3820533979
 10
1009.7432137145
 20
-1207.9467456873
 10
1000.8520789259
 20
-1206.2047503142
 10
991.9421494577
 20
-1204.1581662473
 10
983.0241610806
 20
-1201.8094594611
 10
974.1088592763
 20
-1199.1614599642
 10
965.206986289
 20
-1196.2173583898
 10
956.3292681822
 20
-1192.980702151
 10
947.4864019148
 20
-1189.4553911666
 10
938.689042452
 20
-1185.6456731615
 10
929.9477899267
 20
-1181.5561385494
 10
921.2731768673
 20
-1177.1917149009
 10
912.675655507
 20
-1172.5576610065
 10
904.1655851892
 20
-1167.6595605403
 10
895.7532198861
 20
-1162.5033153318
 10
887.4486958424
 20
-1157.0951382549
 10
879.2620193629
 20
-1151.4415457417
 10
871.2030547551
 20
-1145.5493499309
 10
863.2815124437
 20
-1139.4256504596
 10
855.5069372701
 20
-1133.0778259085
 10
847.8886969919
 20
-1126.5135249119
 10
840.4359709952
 20
-1119.7406569412
 10
833.1577392345
 20
-1112.7673827748
 10
826.062771412
 20
-1105.6021046649
 10
819.1596164115
 20
-1098.2534562136
 10
812.456591997
 20
-1090.7302919698
 10
805.9617747909
 20
-1083.0416767606
 10
799.682990542
 20
-1075.1968747684
 10
793.6278046963
 20
-1067.2053383686
 10
787.8035132812
 20
-1059.0766967401
 10
782.2171341141
 20
-1050.820744263
 10
776.8753983468
 20
-1042.4474287169
 10
771.7847423549
 20
-1033.966839295
 10
766.9512999824
 20
-1025.3891944469
 10
762.3808951508
 20
-1016.7248295666
 10
758.0790348421
 20
-1007.984184539
 10
754.0509024627
 20
-999.1777911604
 10
750.3013515985
 20
-990.3162604491
 10
746.8349001663
 20
-981.4102698593
 10
743.65572497
 20
-972.470550416
 10
740.7676566681
 20
-963.5078737849
 10
738.1741751579
 20
-954.5330392932
 10
735.8784053828
 20
-945.5568609174
 10
733.8831135664
 20
-936.5901542534
 10
732.19070388
 20
-927.6437234844
 10
730.8032155454
 20
-918.7283483624
 10
729.722320378
 20
-909.8547712203
 10
728.9493207724
 20
-901.0336840273
 10
728.4851481328
 20
-892.2757155064
 10
728.3303617511
 20
-883.5914183276
  0
LWPOLYLINE
  5
C7
330
1F
100
AcDbEntity
  8
0
  6
Continuous
 62
     7
370
    25
100
AcDbPolyline
 90
      102
 70
   128
 43
0.0
 10
868.9021794556
 20
-570.9150334327
 10
874.9450901859
 20
-565.2518133047
 10
881.3507285222
 20
-559.72378198
 10
887.9887879765
 20
-554.4575108962
 10
894.8527175856
 20
-549.4581972271
 10
901.9357434797
 20
-544.7307746917
 10
909.2308755674
 20
-540.2799086852
 10
916.730914434
 20
-536.1099916752
 10
924.4284584467
 20
-532.2251388661
 10
932.3159110589
 20
-528.6291841388
 10
940.3854883072
 20
-525.3256762664
 10
948.6292264929
 20
-522.3178754123
 10
957.0389900419
 20
-519.6087499128
 10
965.6064795327
 20
-517.2009733478
 10
974.3232398878
 20
-515.0969219019
 10
983.1806687169
 20
-513.29867202
 10
992.1700248071
 20
-511.8079983576
 10
1001.2824367494
 20
-510.6263720296
 10
1010.5089116933
 20
-509.7549591586
 10
1019.8403442219
 20
-509.1946197237
 10
1029.267525338
 20
-508.9459067125
 10
1038.7811515519
 20
-509.0090655746
 10
1048.3718340632
 20
-509.3840339798
 10
1058.030108026
 20
-510.0704418797
 10
1067.7464418902
 20
-511.0676118724
 10
1077.5112468071
 20
-512.3745598716
 10
1087.3148860933
 20
-513.9899960774
 10
1097.1476847405
 20
-515.9123262493
 10
1106.9999389634
 20
-518.1396532796
 10
1116.8619257766
 20
-520.6697790652
 10
1126.7239125899
 20
-523.5002066776
 10
1136.5761668128
 20
-526.6281428264
 10
1146.4089654599
 20
-530.0505006163
 10
1156.2126047461
 20
-533.7639025933
 10
1165.9774096631
 20
-537.7646840781
 10
1175.6937435272
 20
-542.0488967822
 10
1185.3520174901
 20
-546.612312705
 10
1194.9427000013
 20
-551.4504283059
 10
1204.4563262152
 20
-556.558468949
 10
1213.8835073313
 20
-561.9313936148
 10
1223.2149398599
 20
-567.5638998754
 10
1232.4414148038
 20
-573.4504291271
 10
1241.5538267461
 20
-579.5851720762
 10
1250.5431828364
 20
-585.962074472
 10
1259.4006116655
 20
-592.574843082
 10
1268.1173720205
 20
-599.4169519016
 10
1276.6848615114
 20
-606.4816485957
 10
1285.0946250603
 20
-613.7619611615
 10
1293.3383632461
 20
-621.2507048095
 10
1301.4079404943
 20
-628.9404890538
 10
1309.2953931065
 20
-636.8237250058
 10
1316.9929371192
 20
-644.8926328633
 10
1324.4929759859
 20
-653.1392495885
 10
1331.7881080736
 20
-661.5554367663
 10
1338.8711339677
 20
-670.132888636
 10
1345.7350635768
 20
-678.8631402881
 10
1352.3731230311
 20
-687.7375760185
 10
1358.7787613673
 20
-696.7474378303
 10
1364.9456569938
 20
-705.8838340778
 10
1370.867723929
 20
-715.1377482409
 10
1376.539117808
 20
-724.5000478236
 10
1381.9542416497
 20
-733.9614933664
 10
1387.1077513806
 20
-743.5127475651
 10
1391.9945611087
 20
-753.1443844847
 10
1396.609848143
 20
-762.8468988626
 10
1400.9490577523
 20
-772.6107154883
 10
1405.0079076605
 20
-782.4261986538
 10
1408.782392273
 20
-792.2836616621
 10
1412.2687866289
 20
-802.1733763873
 10
1415.4636500782
 20
-812.0855828751
 10
1418.3638296761
 20
-822.0104989744
 10
1420.9664632957
 20
-831.9383299911
 10
1423.2689824517
 20
-841.8592783548
 10
1425.2691148358
 20
-851.763553287
 10
1426.9648865587
 20
-861.6413804643
 10
1428.3546240985
 20
-871.4830116638
 10
1429.4369559521
 20
-881.2787343836
 10
1430.2108139885
 20
-891.0188814282
 10
1430.6754345033
 20
-900.6938404482
 10
1430.8303589721
 20
-910.2940634273
 10
1430.6754345033
 20
-919.8100761043
 10
1430.2108139885
 20
-929.2324873237
 10
1429.4369559521
 20
-938.5519983032
 10
1428.3546240985
 20
-947.7594118106
 10
1426.9648865587
 20
-956.8456412404
 10
1425.2691148358
 20
-965.8017195811
 10
1423.2689824517
 20
-974.6188082647
 10
1420.9664632957
 20
-983.2882058892
 10
1418.3638296761
 20
-991.8013568057
 10
1415.4636500782
 20
-1000.1498595621
 10
1412.2687866289
 20
-1008.3254751942
 10
1408.782392273
 20
-1016.3201353564
 10
1405.0079076605
 20
-1024.1259502842
 10
1400.9490577523
 20
-1031.7352165808
 10
1396.609848143
 20
-1039.1404248189
 10
1391.9945611087
 20
-1046.3342669522
 10
1387.1077513806
 20
-1053.309643527
 10
1381.9542416497
 20
-1060.0596706886
 10
1376.539117808
 20
-1066.5776869753
 10
1370.867723929
 20
-1072.8572598919
 10
1364.9456569938
 20
-1078.8921922581
 10
1364.8216720976
 20
-1079.0133081963
  0
ARC
  5
C8
330
1F
100
AcDbEntity
  8
0
  6
Continuous
 62
     7
370
    25
100
AcDbCircle
 10
1110.4007877275
 20
-730.8493342128
 30
0.0
 40
226.0296542633537
100
AcDbArc
 50
171.2944808796
 51
180.1118103349
  0
LWPOLYLINE
  5
C9
330
1F
100
AcDbEntity
  8
0
  6
Continuous
 62
     7
370
    25
100
AcDbPolyline
 90
       58
 70
   128
 43
0.0
 10
1239.5737036451
 20
-1057.8960432896
 10
1234.9620051664
 20
-1058.4426757169
 10
1226.6023012992
 20
-1059.1817058524
 10
1218.1398088122
 20
-1059.6097877724
 10
1209.5847243498
 20
-1059.7264056718
 10
1200.9473561224
 20
-1059.5314190348
 10
1192.2381114861
 20
-1059.0250628054
 10
1183.4674844022
 20
-1058.2079471032
 10
1174.6460427933
 20
-1057.0810564891
 10
1165.7844158094
 20
-1055.6457487785
 10
1156.8932810209
 20
-1053.9037534054
 10
1147.9833515526
 20
-1051.8571693385
 10
1139.0653631756
 20
-1049.5084625522
 10
1130.1500613713
 20
-1046.8604630553
 10
1121.2481883839
 20
-1043.916361481
 10
1112.3704702771
 20
-1040.6797052422
 10
1103.5276040098
 20
-1037.1543942577
 10
1094.730244547
 20
-1033.3446762527
 10
1085.9889920216
 20
-1029.2551416406
 10
1077.3143789622
 20
-1024.890717992
 10
1068.7168576019
 20
-1020.2566640976
 10
1060.2067872842
 20
-1015.3585636314
 10
1051.794421981
 20
-1010.2023184229
 10
1043.4898979373
 20
-1004.794141346
 10
1035.3032214579
 20
-999.1405488329
 10
1027.2442568501
 20
-993.2483530221
 10
1019.3227145386
 20
-987.1246535507
 10
1011.548139365
 20
-980.7768289997
 10
1003.9298990868
 20
-974.2125280031
 10
996.4771730902
 20
-967.4396600324
 10
989.1989413294
 20
-960.466385866
 10
982.103973507
 20
-953.3011077561
 10
975.2008185065
 20
-945.9524593047
 10
968.497794092
 20
-938.429295061
 10
962.0029768858
 20
-930.7406798518
 10
955.7241926369
 20
-922.8958778596
 10
949.6690067912
 20
-914.9043414597
 10
943.8447153761
 20
-906.7756998313
 10
938.258336209
 20
-898.5197473541
 10
932.9166004417
 20
-890.1464318081
 10
927.8259444499
 20
-881.6658423861
 10
922.9925020773
 20
-873.0881975381
 10
918.4220972458
 20
-864.4238326578
 10
914.120236937
 20
-855.6831876301
 10
910.0921045577
 20
-846.8767942516
 10
906.3425536935
 20
-838.0152635402
 10
902.8761022612
 20
-829.1092729504
 10
899.6969270649
 20
-820.1695535072
 10
896.808858763
 20
-811.206876876
 10
894.2153772528
 20
-802.2320423843
 10
891.9196074777
 20
-793.2558640086
 10
889.9243156613
 20
-784.2891573446
 10
888.2319059749
 20
-775.3427265755
 10
886.8444176403
 20
-766.4273514536
 10
885.763522473
 20
-757.5537743115
 10
884.9905228673
 20
-748.7326871185
 10
884.5263502277
 20
-739.9747185976
 10
884.371563846
 20
-731.2904214188
  0
LWPOLYLINE
  5
CA
330
1F
100
AcDbEntity
  8
0
  6
Continuous
 62
     7
370
    25
100
AcDbPolyline
 90
      116
 70
   128
 43
0.0
 10
866.4340362991
 20
-562.1600313604
 10
870.5667452636
 20
-555.5726839842
 10
875.4709432325
 20
-548.3721103023
 10
880.6439571663
 20
-541.3950139343
 10
886.080880148
 20
-534.6480130786
 10
891.7765549267
 20
-528.1375076744
 10
897.7255788099
 20
-521.8696733303
 10
903.9223087881
 20
-515.8504554669
 10
910.3608668876
 20
-510.0855636768
 10
917.035145746
 20
-504.5804663093
 10
923.9388144055
 20
-499.3403852826
 10
931.0653243183
 20
-494.3702911309
 10
938.407915558
 20
-489.6748982896
 10
945.959623232
 20
-485.2586606233
 10
953.7132840881
 20
-481.1257672008
 10
961.6615433095
 20
-477.280138322
 10
969.7968614908
 20
-473.7254217987
 10
978.1115217899
 20
-470.464989495
 10
986.5976372478
 20
-467.5019341282
 10
995.24715827
 20
-464.839066336
 10
1004.0518802619
 20
-462.4789120098
 10
1013.0034514114
 20
-460.4237098988
 10
1022.093380611
 20
-458.6754094868
 10
1031.3130455122
 20
-457.2356691426
 10
1040.6537007044
 20
-456.1058545472
 10
1050.1064860104
 20
-455.287037398
 10
1059.6624348907
 20
-454.7799943929
 10
1069.312482949
 20
-454.5852064927
 10
1079.0474765302
 20
-454.7028584656
 10
1088.8581814031
 20
-455.1328387117
 10
1098.7352915199
 20
-455.8747393684
 10
1108.6694378435
 20
-456.9278566983
 10
1118.6511972342
 20
-458.2911917557
 10
1128.6711013886
 20
-459.9634513346
 10
1138.7196458208
 20
-461.9430491956
 10
1148.7872988776
 20
-464.2281075703
 10
1158.8645107803
 20
-466.8164589423
 10
1168.941722683
 20
-469.7056481036
 10
1179.0093757399
 20
-472.8929344832
 10
1189.057920172
 20
-476.3752947469
 10
1199.0778243265
 20
-480.1494256652
 10
1209.0595837172
 20
-484.2117472462
 10
1218.9937300407
 20
-488.5584061318
 10
1228.8708401576
 20
-493.1852792527
 10
1238.6815450305
 20
-498.0879777397
 10
1248.4165386116
 20
-503.2618510861
 10
1258.0665866699
 20
-508.7019915597
 10
1267.6225355502
 20
-514.4032388578
 10
1277.0753208562
 20
-520.3601850019
 10
1286.4159760485
 20
-526.5671794678
 10
1295.6356409497
 20
-533.0183345452
 10
1304.7255701493
 20
-539.7075309229
 10
1313.6771412987
 20
-546.6284234928
 10
1322.4818632907
 20
-553.7744473691
 10
1331.1313843129
 20
-561.1388241153
 10
1339.6174997708
 20
-568.7145681741
 10
1347.9321600699
 20
-576.4944934932
 10
1356.0674782511
 20
-584.4712203422
 10
1364.0157374725
 20
-592.6371823126
 10
1371.7693983287
 20
-600.9846334948
 10
1379.3211060027
 20
-609.5056558256
 10
1386.6636972424
 20
-618.1921665994
 10
1393.7902071551
 20
-627.0359261344
 10
1400.6938758147
 20
-636.028545589
 10
1407.3681546731
 20
-645.161494919
 10
1413.8067127726
 20
-654.4261109686
 10
1420.0034427508
 20
-663.8136056885
 10
1425.952466634
 20
-673.3150744712
 10
1431.6481414127
 20
-682.921504598
 10
1437.0850643943
 20
-692.6237837882
 10
1442.2580783281
 20
-702.4127088421
 10
1447.162276297
 20
-712.2789943714
 10
1451.7930063722
 20
-722.2132816066
 10
1456.1458760257
 20
-732.2061472746
 10
1460.2167562969
 20
-742.248112537
 10
1464.0017857094
 20
-752.3296519814
 10
1467.4973739335
 20
-762.441202657
 10
1470.7002051919
 20
-772.5731731455
 10
1473.6072414053
 20
-782.7159526592
 10
1476.2157250737
 20
-792.8599201573
 10
1478.5231818923
 20
-802.9954534722
 10
1480.5274230986
 20
-813.1129384366
 10
1482.2265475484
 20
-823.2027780032
 10
1483.6189435193
 20
-833.2554013479
 10
1484.7032902392
 20
-843.2612729486
 10
1485.4785591397
 20
-853.21090163
 10
1485.9440148313
 20
-863.0948495666
 10
1486.099215801
 20
-872.9037412351
 10
1485.9440148313
 20
-882.6282723076
 10
1485.4785591397
 20
-892.2592184773
 10
1484.7032902392
 20
-901.7874442084
 10
1483.6189435193
 20
-911.2039114017
 10
1482.2265475484
 20
-920.4996879675
 10
1480.5274230986
 20
-929.6659562988
 10
1478.5231818923
 20
-938.6940216348
 10
1476.2157250737
 20
-947.5753203088
 10
1473.6072414053
 20
-956.3014278708
 10
1470.7002051919
 20
-964.8640670794
 10
1467.4973739334
 20
-973.2551157526
 10
1464.0017857094
 20
-981.4666144724
 10
1460.2167562969
 20
-989.4907741349
 10
1456.1458760257
 20
-997.3199833387
 10
1451.7930063722
 20
-1004.9468156045
 10
1447.162276297
 20
-1012.36403642
 10
1442.2580783281
 20
-1019.5646101019
 10
1437.0850643943
 20
-1026.5417064699
 10
1431.6481414127
 20
-1033.2887073255
 10
1425.952466634
 20
-1039.7992127298
 10
1420.0034427508
 20
-1046.0670470739
 10
1413.8067127725
 20
-1052.0862649373
 10
1407.3681546731
 20
-1057.8511567273
 10
1400.6938758147
 20
-1063.3562540949
 10
1393.7902071551
 20
-1068.5963351216
 10
1386.6636972424
 20
-1073.5664292733
 10
1379.3211060027
 20
-1078.2618221146
 10
1373.5142295883
 20
-1081.6930910601
  0
LWPOLYLINE
  5
CB
330
1F
100
AcDbEntity
  8
0
  6
Continuous
 62
     7
370
    25
100
AcDbPolyline
 90
      108
 70
   128
 43
0.0
 10
914.4754014898
 20
-463.5526355292
 10
919.157954509
 20
-459.1089650542
 10
925.8839969732
 20
-453.1421285544
 10
932.8454158456
 20
-447.4358592215
 10
940.0360967241
 20
-441.9951690258
 10
947.4497238395
 20
-436.8248366723
 10
955.0797856033
 20
-431.9294034035
 10
962.9195803263
 20
-427.3131690104
 10
970.9622221052
 20
-422.9801880562
 10
979.2006468707
 20
-418.9342663152
 10
987.6276185921
 20
-415.1789574295
 10
996.2357356328
 20
-411.7175597882
 10
1005.0174372512
 20
-408.5531136302
 10
1013.965010242
 20
-405.6883983741
 10
1023.0705957102
 20
-403.1259301765
 10
1032.3261959746
 20
-400.8679597224
 10
1041.7236815916
 20
-398.9164702481
 10
1051.2547984961
 20
-397.2731757996
 10
1060.9111752509
 20
-395.9395197266
 10
1070.6843303997
 20
-394.9166734153
 10
1080.5656799168
 20
-394.2055352593
 10
1090.5465447461
 20
-393.8067298702
 10
1100.6181584248
 20
-393.7206075298
 10
1110.7716747829
 20
-393.9472438814
 10
1120.998175713
 20
-394.4864398644
 10
1131.2886790033
 20
-395.3377218883
 10
1141.6341462272
 20
-396.5003422492
 10
1152.0254906816
 20
-397.9732797863
 10
1162.4535853684
 20
-399.7552407786
 10
1172.9092710106
 20
-401.8446600819
 10
1183.3833640973
 20
-404.2397025028
 10
1193.8666649501
 20
-406.9382644109
 10
1204.3499658028
 20
-409.9379755865
 10
1214.8240588896
 20
-413.2362013022
 10
1225.2797445318
 20
-416.8300446375
 10
1235.7078392185
 20
-420.7163490227
 10
1246.099183673
 20
-424.891701012
 10
1256.4446508968
 20
-429.3524332809
 10
1266.7351541872
 20
-434.094627848
 10
1276.9616551172
 20
-439.1141195158
 10
1287.1151714753
 20
-444.4064995293
 10
1297.1867851541
 20
-449.9671194484
 10
1307.1676499834
 20
-455.7910952305
 10
1317.0489995004
 20
-461.8733115206
 10
1326.8221546493
 20
-468.2084261441
 10
1336.4785314041
 20
-474.7908747987
 10
1346.0096483086
 20
-481.6148759422
 10
1355.4071339256
 20
-488.6744358704
 10
1364.6627341899
 20
-495.9633539811
 10
1373.7683196582
 20
-503.4752282211
 10
1382.7158926489
 20
-511.2034607084
 10
1391.4975942674
 20
-519.1412635279
 10
1400.105711308
 20
-527.2816646932
 10
1408.5326830295
 20
-535.6175142704
 10
1416.771107795
 20
-544.1414906578
 10
1424.8137495739
 20
-552.846107017
 10
1432.6535442969
 20
-561.7237178485
 10
1440.2836060606
 20
-570.7665257073
 10
1447.6972331761
 20
-579.9665880511
 10
1454.8879140546
 20
-589.3158242171
 10
1461.8493329269
 20
-598.8060225187
 10
1468.5753753912
 20
-608.4288474588
 10
1475.0601337828
 20
-618.1758470505
 10
1481.2979123634
 20
-628.0384602412
 10
1487.2832323239
 20
-638.0080244315
 10
1493.0108365961
 20
-648.0757830842
 10
1498.4756944707
 20
-658.2328934153
 10
1503.6730060157
 20
-668.4704341606
 10
1508.5982062919
 20
-678.7794134119
 10
1513.2469693632
 20
-689.1507765146
 10
1517.6152120954
 20
-699.5754140206
 10
1521.6990977432
 20
-710.0441696895
 10
1525.4950393196
 20
-720.5478485307
 10
1528.9997027466
 20
-731.0772248797
 10
1532.2100097838
 20
-741.6230505012
 10
1535.1231407319
 20
-752.1760627118
 10
1537.7365369094
 20
-762.7269925164
 10
1540.0479029
 20
-773.2665727484
 10
1542.0552085684
 20
-783.7855462103
 10
1543.7566908441
 20
-794.2746738038
 10
1545.1508552691
 20
-804.7247426451
 10
1546.2364773112
 20
-815.1265741568
 10
1547.0126034394
 20
-825.4710321296
 10
1547.478551961
 20
-835.7490307469
 10
1547.633913621
 20
-845.9515425653
 10
1547.478551961
 20
-856.0696064433
 10
1547.0126034394
 20
-866.0943354124
 10
1546.2364773112
 20
-876.0169244827
 10
1545.1508552691
 20
-885.8286583764
 10
1543.7566908441
 20
-895.520919183
 10
1542.0552085684
 20
-905.0851939281
 10
1540.0479029
 20
-914.5130820514
 10
1537.7365369094
 20
-923.7963027841
 10
1535.1231407319
 20
-932.9267024232
 10
1532.2100097838
 20
-941.8962614921
 10
1528.9997027466
 20
-950.6971017852
 10
1525.4950393196
 20
-959.321493287
 10
1521.6990977432
 20
-967.7618609617
 10
1517.6152120954
 20
-976.0107914067
 10
1513.2469693632
 20
-984.0610393636
 10
1508.5982062919
 20
-991.9055340827
 10
1503.6730060157
 20
-999.5373855324
 10
1498.4756944707
 20
-1006.9498904517
 10
1493.0108365961
 20
-1014.1365382376
 10
1487.2832323239
 20
-1021.0910166634
 10
1481.2979123634
 20
-1027.807217423
 10
1475.0601337828
 20
-1034.2792414961
 10
1473.2579284103
 20
-1036.0577338544
  0
LWPOLYLINE
  5
CC
330
1F
100
AcDbEntity
  8
0
  6
Continuous
 62
     7
370
    25
100
AcDbPolyline
 90
      140
 70
   128
 43
0.0
 10
810.9065300417
 20
-627.5205651995
 10
812.6832728304
 20
-619.2604628425
 10
814.994638821
 20
-609.9772421097
 10
817.6080349985
 20
-600.8468424707
 10
820.5211659466
 20
-591.8772834017
 10
823.7314729838
 20
-583.0764431086
 10
827.2361364108
 20
-574.4520516068
 10
831.0320779872
 20
-566.0116839321
 10
835.115963635
 20
-557.7627534872
 10
839.4842063672
 20
-549.7125055302
 10
844.1329694385
 20
-541.8680108112
 10
849.0581697147
 20
-534.2361593615
 10
854.2554812597
 20
-526.8236544421
 10
859.7203391343
 20
-519.6370066562
 10
865.4479434065
 20
-512.6825282305
 10
871.433263367
 20
-505.9663274709
 10
877.6710419476
 20
-499.4943033978
 10
884.1558003392
 20
-493.2721405646
 10
890.8818428035
 20
-487.3053040648
 10
897.8432616759
 20
-481.5990347318
 10
905.0339425543
 20
-476.1583445361
 10
912.4475696698
 20
-470.9880121826
 10
920.0776314336
 20
-466.0925789138
 10
927.9174261565
 20
-461.4763445207
 10
935.9600679354
 20
-457.1433635666
 10
944.1984927009
 20
-453.0974418255
 10
952.6254644224
 20
-449.3421329398
 10
961.233581463
 20
-445.8807352985
 10
970.0152830815
 20
-442.7162891405
 10
978.9628560722
 20
-439.8515738844
 10
988.0684415405
 20
-437.2891056868
 10
997.3240418048
 20
-435.0311352327
 10
1006.7215274218
 20
-433.0796457584
 10
1016.2526443263
 20
-431.4363513099
 10
1025.9090210811
 20
-430.1026952369
 10
1035.68217623
 20
-429.0798489257
 10
1045.563525747
 20
-428.3687107696
 10
1055.5443905764
 20
-427.9699053806
 10
1065.6160042551
 20
-427.8837830401
 10
1075.7695206132
 20
-428.1104193917
 10
1085.9960215432
 20
-428.6496153747
 10
1096.2865248336
 20
-429.5008973987
 10
1106.6319920574
 20
-430.6635177595
 10
1117.0233365119
 20
-432.1364552966
 10
1127.4514311987
 20
-433.918416289
 10
1137.9071168408
 20
-436.0078355923
 10
1148.3812099276
 20
-438.4028780131
 10
1158.8645107803
 20
-441.1014399212
 10
1169.3478116331
 20
-444.1011510968
 10
1179.8219047198
 20
-447.3993768125
 10
1190.277590362
 20
-450.9932201478
 10
1200.7056850488
 20
-454.8795245331
 10
1211.0970295032
 20
-459.0548765223
 10
1221.4424967271
 20
-463.5156087912
 10
1231.7330000174
 20
-468.2578033583
 10
1241.9595009475
 20
-473.2772950261
 10
1252.1130173056
 20
-478.5696750396
 10
1262.1846309843
 20
-484.1302949587
 10
1272.1654958136
 20
-489.9542707408
 10
1282.0468453307
 20
-496.0364870309
 10
1291.8200004795
 20
-502.3716016544
 10
1301.4763772343
 20
-508.954050309
 10
1311.0074941388
 20
-515.7780514525
 10
1320.4049797558
 20
-522.8376113807
 10
1329.6605800202
 20
-530.1265294915
 10
1338.7661654884
 20
-537.6384037314
 10
1347.7137384792
 20
-545.3666362187
 10
1356.4954400976
 20
-553.3044390382
 10
1365.1035571383
 20
-561.4448402036
 10
1373.5305288597
 20
-569.7806897807
 10
1381.7689536253
 20
-578.3046661681
 10
1389.8115954041
 20
-587.0092825273
 10
1397.6513901271
 20
-595.8868933589
 10
1405.2814518909
 20
-604.9297012176
 10
1412.6950790064
 20
-614.1297635615
 10
1419.8857598848
 20
-623.4789997274
 10
1426.8471787572
 20
-632.969198029
 10
1433.5732212214
 20
-642.5920229691
 10
1440.057979613
 20
-652.3390225608
 10
1446.2957581937
 20
-662.2016357515
 10
1452.2810781541
 20
-672.1711999418
 10
1458.0086824263
 20
-682.2389585945
 10
1463.473540301
 20
-692.3960689256
 10
1468.6708518459
 20
-702.6336096709
 10
1473.5960521222
 20
-712.9425889222
 10
1478.2448151934
 20
-723.3139520249
 10
1482.6130579257
 20
-733.7385895309
 10
1486.6969435735
 20
-744.2073451998
 10
1490.4928851498
 20
-754.7110240411
 10
1493.9975485768
 20
-765.2404003901
 10
1497.207855614
 20
-775.7862260115
 10
1500.1209865622
 20
-786.3392382222
 10
1502.7343827397
 20
-796.8901680267
 10
1505.0457487302
 20
-807.4297482588
 10
1507.0530543987
 20
-817.9487217206
 10
1508.7545366743
 20
-828.4378493141
 10
1510.1487010993
 20
-838.8879181554
 10
1511.2343231415
 20
-849.2897496671
 10
1512.0104492696
 20
-859.6342076399
 10
1512.4763977913
 20
-869.9122062573
 10
1512.6317594513
 20
-880.1147180757
 10
1512.4763977913
 20
-890.2327819537
 10
1512.0104492696
 20
-900.2575109228
 10
1511.2343231415
 20
-910.180099993
 10
1510.1487010993
 20
-919.9918338867
 10
1508.7545366743
 20
-929.6840946933
 10
1507.0530543987
 20
-939.2483694385
 10
1505.0457487302
 20
-948.6762575617
 10
1502.7343827397
 20
-957.9594782944
 10
1500.1209865622
 20
-967.0898779335
 10
1497.207855614
 20
-976.0594370024
 10
1493.9975485768
 20
-984.8602772956
 10
1490.4928851498
 20
-993.4846687974
 10
1486.6969435735
 20
-1001.9250364721
 10
1482.6130579257
 20
-1010.173966917
 10
1478.2448151934
 20
-1018.224214874
 10
1473.5960521222
 20
-1026.068709593
 10
1468.6708518459
 20
-1033.7005610427
 10
1463.473540301
 20
-1041.1130659621
 10
1458.0086824263
 20
-1048.2997137479
 10
1452.2810781541
 20
-1055.2541921737
 10
1446.2957581937
 20
-1061.9703929333
 10
1440.057979613
 20
-1068.4424170064
 10
1433.5732212214
 20
-1074.6645798396
 10
1426.8471787572
 20
-1080.6314163394
 10
1419.8857598848
 20
-1086.3376856723
 10
1412.6950790064
 20
-1091.778375868
 10
1405.2814518909
 20
-1096.9487082215
 10
1397.6513901271
 20
-1101.8441414904
 10
1389.8115954041
 20
-1106.4603758835
 10
1381.7689536252
 20
-1110.7933568376
 10
1373.5305288597
 20
-1114.8392785786
 10
1365.1035571383
 20
-1118.5945874644
 10
1356.4954400976
 20
-1122.0559851057
 10
1347.7137384792
 20
-1125.2204312636
 10
1338.7661654884
 20
-1128.0851465198
 10
1329.6605800202
 20
-1130.6476147174
 10
1320.4049797558
 20
-1132.9055851715
 10
1311.0074941388
 20
-1134.8570746457
 10
1306.8260226837
 20
-1135.6188399631
  0
LWPOLYLINE
  5
CD
330
1F
100
AcDbEntity
  8
0
  6
Continuous
 62
     7
370
    25
100
AcDbPolyline
 90
       53
 70
   128
 43
0.0
 10
1241.3395432003
 20
-1043.1085002524
 10
1239.0236646302
 20
-1042.8381771586
 10
1229.5705648779
 20
-1041.5448120925
 10
1220.0796276271
 20
-1039.9422735816
 10
1210.5609109757
 20
-1038.032259929
 10
1201.0245024611
 20
-1035.8167952873
 10
1191.48050837
 20
-1033.2982275131
 10
1181.9390430278
 20
-1030.4792256791
 10
1172.41021808
 20
-1027.3627772456
 10
1162.9041317764
 20
-1023.952184894
 10
1153.4308582694
 20
-1020.2510630275
 10
1144.0004369376
 20
-1016.2633339399
 10
1134.6228617469
 20
-1011.9932236598
 10
1125.3080706589
 20
-1007.4452574711
 10
1116.0659350992
 20
-1002.6242551181
 10
1106.9062494963
 20
-997.5353256973
 10
1097.8387209016
 20
-992.1838622431
 10
1088.8729587022
 20
-986.5755360124
 10
1080.0184644376
 20
-980.7162904746
 10
1071.2846217302
 20
-974.6123350128
 10
1062.680686341
 20
-968.2701383435
 10
1054.2157763605
 20
-961.6964216613
 10
1045.8988625458
 20
-954.898151516
 10
1037.7387588143
 20
-947.8825324296
 10
1029.7441129021
 20
-940.6569992616
 10
1021.9233972004
 20
-933.2292093296
 10
1014.2848997763
 20
-925.6070342944
 10
1006.8367155897
 20
-917.7985518181
 10
999.5867379142
 20
-909.8120370035
 10
992.5426499729
 20
-901.6559536248
 10
985.7119167953
 20
-893.3389451576
 10
979.1017773064
 20
-884.8698256193
 10
972.7192366553
 20
-876.2575702285
 10
966.5710587915
 20
-867.5113058927
 10
960.6637592965
 20
-858.6403015369
 10
955.003598479
 20
-849.6539582801
 10
949.5965747405
 20
-840.5617994727
 10
944.4484182185
 20
-831.3734606041
 10
939.5645847137
 20
-822.0986790911
 10
934.9502499085
 20
-812.7472839589
 10
930.6103038816
 20
-803.3291854247
 10
926.5493459263
 20
-793.8543643951
 10
922.7716796758
 20
-784.3328618887
 10
919.2813085426
 20
-774.7747683953
 10
916.081931476
 20
-765.1902131823
 10
913.1769390419
 20
-755.5893535602
 10
910.5694098296
 20
-745.982364118
 10
908.2621071894
 20
-736.3794259411
 10
906.2574763041
 20
-726.7907158212
 10
904.5576415976
 20
-717.2263954721
 10
903.1644044836
 20
-707.6966007601
 10
902.0792414563
 20
-698.2114309626
 10
901.8011758332
 20
-695.23175567
  0
ENDSEC
  0
SECTION
  2
OBJECTS
  0
DICTIONARY
  5
C
330
0
100
AcDbDictionary
281
     1
  3
ACAD_GROUP
350
D
  3
ACAD_LAYOUT
350
1A
  3
ACAD_MLINESTYLE
350
17
  3
ACAD_PLOTSETTINGS
350
19
  3
ACAD_PLOTSTYLENAME
350
E
  3
ACAD_SCALELIST
350
47
  0
DICTIONARY
  5
D
102
{ACAD_REACTORS
330
C
102
}
330
C
100
AcDbDictionary
281
     1
  0
DICTIONARY
  5
1A
102
{ACAD_REACTORS
330
C
102
}
330
C
100
AcDbDictionary
281
     1
  3
Layout1
350
1E
  3
Layout2
350
26
  3
Model
350
22
  0
DICTIONARY
  5
17
102
{ACAD_REACTORS
330
C
102
}
330
C
100
AcDbDictionary
281
     1
  3
Standard
350
18
  0
DICTIONARY
  5
19
102
{ACAD_REACTORS
330
C
102
}
330
C
100
AcDbDictionary
281
     1
  0
ACDBDICTIONARYWDFLT
  5
E
102
{ACAD_REACTORS
330
C
102
}
330
C
100
AcDbDictionary
281
     1
  3
Normal
350
F
100
AcDbDictionaryWithDefault
340
F
  0
DICTIONARY
  5
47
102
{ACAD_REACTORS
330
C
102
}
330
C
100
AcDbDictionary
281
     1
  3
A0
350
48
  3
A1
350
49
  3
A2
350
4A
  3
A3
350
4B
  3
A4
350
4C
  3
A5
350
4D
  3
A6
350
4E
  3
A7
350
4F
  3
A8
350
50
  3
A9
350
51
  3
B0
350
52
  3
B1
350
53
  3
B2
350
54
  3
B3
350
55
  3
B4
350
56
  3
B5
350
57
  3
B6
350
58
  3
B7
350
59
  3
B8
350
5A
  3
B9
350
5B
  3
C0
350
5C
  3
C1
350
5D
  3
C2
350
5E
  3
C3
350
5F
  3
C4
350
60
  3
C5
350
61
  3
C6
350
62
  3
C7
350
63
  3
C8
350
64
  3
C9
350
65
  3
D0
350
66
  3
D1
350
67
  3
D2
350
68
  0
LAYOUT
  5
1E
102
{ACAD_REACTORS
330
1A
102
}
330
1A
100
AcDbPlotSettings
  1

  2
none_device
  4

  6

 40
0.0
 41
0.0
 42
0.0
 43
0.0
 44
0.0
 45
0.0
 46
0.0
 47
0.0
 48
0.0
 49
0.0
140
0.0
141
0.0
142
1.0
143
1.0
 70
   688
 72
     1
 73
     0
 74
     5
  7

 75
    16
147
1.0
148
0.0
149
0.0
100
AcDbLayout
  1
Layout1
 70
     1
 71
     1
 10
0.0
 20
0.0
 11
420.0
 21
297.0
 12
0.0
 22
0.0
 32
0.0
 14
1.0000000000E+20
 24
1.0000000000E+20
 34
1.0000000000E+20
 15
-1.0000000000E+20
 25
-1.0000000000E+20
 35
-1.0000000000E+20
146
0.0
 13
0.0
 23
0.0
 33
0.0
 16
1.0
 26
0.0
 36
0.0
 17
0.0
 27
1.0
 37
0.0
 76
     0
330
1B
  0
LAYOUT
  5
26
102
{ACAD_REACTORS
330
1A
102
}
330
1A
100
AcDbPlotSettings
  1

  2
none_device
  4

  6

 40
0.0
 41
0.0
 42
0.0
 43
0.0
 44
0.0
 45
0.0
 46
0.0
 47
0.0
 48
0.0
 49
0.0
140
0.0
141
0.0
142
1.0
143
1.0
 70
   688
 72
     1
 73
     0
 74
     5
  7

 75
    16
147
1.0
148
0.0
149
0.0
100
AcDbLayout
  1
Layout2
 70
     1
 71
     2
 10
0.0
 20
0.0
 11
0.0
 21
0.0
 12
0.0
 22
0.0
 32
0.0
 14
0.0
 24
0.0
 34
0.0
 15
0.0
 25
0.0
 35
0.0
146
0.0
 13
0.0
 23
0.0
 33
0.0
 16
1.0
 26
0.0
 36
0.0
 17
0.0
 27
1.0
 37
0.0
 76
     0
330
23
  0
LAYOUT
  5
22
102
{ACAD_REACTORS
330
1A
102
}
330
1A
100
AcDbPlotSettings
  1

  2
none_device
  4
Letter_(8.50_x_11.00_Inches)
  6

 40
6.35
 41
6.35
 42
6.35000508
 43
6.35000508
 44
215.9
 45
279.4
 46
0.0
 47
0.0
 48
0.0
 49
0.0
140
0.0
141
0.0
142
1.0
143
1.0
 70
  1712
 72
     1
 73
     0
 74
     0
  7

 75
     0
147
1.0
148
0.0
149
0.0
100
AcDbLayout
  1
Model
 70
     1
 71
     0
 10
0.0
 20
0.0
 11
279.4
 21
215.9
 12
0.0
 22
0.0
 32
0.0
 14
0.0
 24
0.0
 34
0.0
 15
279.4
 25
215.9
 35
0.0
146
0.0
 13
0.0
 23
0.0
 33
0.0
 16
1.0
 26
0.0
 36
0.0
 17
0.0
 27
1.0
 37
0.0
 76
     0
330
1F
331
29
  0
MLINESTYLE
  5
18
102
{ACAD_REACTORS
330
17
102
}
330
17
100
AcDbMlineStyle
  2
Standard
 70
     0
  3

 62
   256
 51
90.0
 52
90.0
 71
     2
 49
0.5
 62
   256
  6
BYLAYER
 49
-0.5
 62
   256
  6
BYLAYER
  0
ACDBPLACEHOLDER
  5
F
102
{ACAD_REACTORS
330
E
102
}
330
E
  0
SCALE
  5
48
102
{ACAD_REACTORS
330
47
102
}
330
47
100
AcDbScale
 70
     0
300
1:1
140
1.0
141
1.0
290
     1
  0
SCALE
  5
49
102
{ACAD_REACTORS
330
47
102
}
330
47
100
AcDbScale
 70
     0
300
1:2
140
1.0
141
2.0
290
     0
  0
SCALE
  5
4A
102
{ACAD_REACTORS
330
47
102
}
330
47
100
AcDbScale
 70
     0
300
1:4
140
1.0
141
4.0
290
     0
  0
SCALE
  5
4B
102
{ACAD_REACTORS
330
47
102
}
330
47
100
AcDbScale
 70
     0
300
1:5
140
1.0
141
5.0
290
     0
  0
SCALE
  5
4C
102
{ACAD_REACTORS
330
47
102
}
330
47
100
AcDbScale
 70
     0
300
1:8
140
1.0
141
8.0
290
     0
  0
SCALE
  5
4D
102
{ACAD_REACTORS
330
47
102
}
330
47
100
AcDbScale
 70
     0
300
1:10
140
1.0
141
10.0
290
     0
  0
SCALE
  5
4E
102
{ACAD_REACTORS
330
47
102
}
330
47
100
AcDbScale
 70
     0
300
1:16
140
1.0
141
16.0
290
     0
  0
SCALE
  5
4F
102
{ACAD_REACTORS
330
47
102
}
330
47
100
AcDbScale
 70
     0
300
1:20
140
1.0
141
20.0
290
     0
  0
SCALE
  5
50
102
{ACAD_REACTORS
330
47
102
}
330
47
100
AcDbScale
 70
     0
300
1:30
140
1.0
141
30.0
290
     0
  0
SCALE
  5
51
102
{ACAD_REACTORS
330
47
102
}
330
47
100
AcDbScale
 70
     0
300
1:40
140
1.0
141
40.0
290
     0
  0
SCALE
  5
52
102
{ACAD_REACTORS
330
47
102
}
330
47
100
AcDbScale
 70
     0
300
1:50
140
1.0
141
50.0
290
     0
  0
SCALE
  5
53
102
{ACAD_REACTORS
330
47
102
}
330
47
100
AcDbScale
 70
     0
300
1:100
140
1.0
141
100.0
290
     0
  0
SCALE
  5
54
102
{ACAD_REACTORS
330
47
102
}
330
47
100
AcDbScale
 70
     0
300
2:1
140
2.0
141
1.0
290
     0
  0
SCALE
  5
55
102
{ACAD_REACTORS
330
47
102
}
330
47
100
AcDbScale
 70
     0
300
4:1
140
4.0
141
1.0
290
     0
  0
SCALE
  5
56
102
{ACAD_REACTORS
330
47
102
}
330
47
100
AcDbScale
 70
     0
300
8:1
140
8.0
141
1.0
290
     0
  0
SCALE
  5
57
102
{ACAD_REACTORS
330
47
102
}
330
47
100
AcDbScale
 70
     0
300
10:1
140
10.0
141
1.0
290
     0
  0
SCALE
  5
58
102
{ACAD_REACTORS
330
47
102
}
330
47
100
AcDbScale
 70
     0
300
100:1
140
100.0
141
1.0
290
     0
  0
SCALE
  5
59
102
{ACAD_REACTORS
330
47
102
}
330
47
100
AcDbScale
 70
     0
300
1/128" = 1'-0"
140
0.0078125
141
12.0
290
     0
  0
SCALE
  5
5A
102
{ACAD_REACTORS
330
47
102
}
330
47
100
AcDbScale
 70
     0
300
1/64" = 1'-0"
140
0.015625
141
12.0
290
     0
  0
SCALE
  5
5B
102
{ACAD_REACTORS
330
47
102
}
330
47
100
AcDbScale
 70
     0
300
1/32" = 1'-0"
140
0.03125
141
12.0
290
     0
  0
SCALE
  5
5C
102
{ACAD_REACTORS
330
47
102
}
330
47
100
AcDbScale
 70
     0
300
1/16" = 1'-0"
140
0.0625
141
12.0
290
     0
  0
SCALE
  5
5D
102
{ACAD_REACTORS
330
47
102
}
330
47
100
AcDbScale
 70
     0
300
3/32" = 1'-0"
140
0.09375
141
12.0
290
     0
  0
SCALE
  5
5E
102
{ACAD_REACTORS
330
47
102
}
330
47
100
AcDbScale
 70
     0
300
1/8" = 1'-0"
140
0.125
141
12.0
290
     0
  0
SCALE
  5
5F
102
{ACAD_REACTORS
330
47
102
}
330
47
100
AcDbScale
 70
     0
300
3/16" = 1'-0"
140
0.1875
141
12.0
290
     0
  0
SCALE
  5
60
102
{ACAD_REACTORS
330
47
102
}
330
47
100
AcDbScale
 70
     0
300
1/4" = 1'-0"
140
0.25
141
12.0
290
     0
  0
SCALE
  5
61
102
{ACAD_REACTORS
330
47
102
}
330
47
100
AcDbScale
 70
     0
300
3/8" = 1'-0"
140
0.375
141
12.0
290
     0
  0
SCALE
  5
62
102
{ACAD_REACTORS
330
47
102
}
330
47
100
AcDbScale
 70
     0
300
1/2" = 1'-0"
140
0.5
141
12.0
290
     0
  0
SCALE
  5
63
102
{ACAD_REACTORS
330
47
102
}
330
47
100
AcDbScale
 70
     0
300
3/4" = 1'-0"
140
0.75
141
12.0
290
     0
  0
SCALE
  5
64
102
{ACAD_REACTORS
330
47
102
}
330
47
100
AcDbScale
 70
     0
300
1" = 1'-0"
140
1.0
141
12.0
290
     0
  0
SCALE
  5
65
102
{ACAD_REACTORS
330
47
102
}
330
47
100
AcDbScale
 70
     0
300
1-1/2" = 1'-0"
140
1.5
141
12.0
290
     0
  0
SCALE
  5
66
102
{ACAD_REACTORS
330
47
102
}
330
47
100
AcDbScale
 70
     0
300
3" = 1'-0"
140
3.0
141
12.0
290
     0
  0
SCALE
  5
67
102
{ACAD_REACTORS
330
47
102
}
330
47
100
AcDbScale
 70
     0
300
6" = 1'-0"
140
6.0
141
12.0
290
     0
  0
SCALE
  5
68
102
{ACAD_REACTORS
330
47
102
}
330
47
100
AcDbScale
 70
     0
300
1'-0" = 1'-0"
140
12.0
141
12.0
290
     0
  0
ENDSEC
  0
EOF
